Guitar Intro

Papa Kehte Hain | Qayamat Se Qayamat Tak| Guitar Intro Lesson

Papa Kehte Hain Guitar Intro

Papa Kehte Hain Guitar Intro Lesson

Song: Papa Kehte Hai
Film: Qayamat Se Qayamat Tak
Star Cast: Amir Khan Juhi Chawla
Singer: Udit Narayan
Music: Anand Milind
Lyrics: Majrooh Sultanpuri
Music Label: T-Series

Presenting Papa Kehte Hai Guitar Intro Lesson.
Papa Kehte Hain is a beautiful song to perform in school, colleges, and farewell occasion. Here we learn to play its intro lesson.
The song is on the C major scale, if you are a beginner, though you can play after some practice.
PAPA KEHTE HAIN GUITAR CHORDS

Start Chords 
[C] [Am] [F] [G]

[C] [Am] [F] [G]

Trumpet
E|------5-----5----------------------|
B|----5---8-----------------5-5-6-5--|
G|--5-----------7/9-5-7---5----------|
D|----------------------7------------|
A|-----------------------------------|
E|-----------------------------------|


E|--------5-----5--------------------|
B|------5---8-----------------5-5-6-5|
G|5---5-----------7/9-5-7---5--------|
D|--5---------------------7----------|
A|-----------------------------------|
E|-----------------------------------|

Guitar Lead 
Play Fast
E|5----5---5---5----5---5-7-7/8-7-5--|
B|---8---8---8----8---8--------------|
G|-----------------------------------|
D|-----------------------------------|
A|-----------------------------------|
E|-----------------------------------|


E|-----------------------------------|
B|--6--5-6-5-6-5-6--5-6-5-6-8--------|
G|-----------------------------------|
D|-----------------------------------|
A|-----------------------------------|
E|-----------------------------------|

Prelude 2nd Stanza
After Flute
E|4-4-5-5-5----5---5---5----5---5-7-7/8-7-5-|
B|----------8---8---8----8---8--------------|
G|------------------------------------------|
D|------------------------------------------|
A|------------------------------------------|
E|------------------------------------------|

E|------------------------------------------|
B|--6--5-6-5-6-5-6--5-6-5-6-6/7-7/8-8-------|
G|------------------------------------------|
D|------------------------------------------|
A|------------------------------------------|
E|------------------------------------------|

Loading...

Leave a Reply

Your email address will not be published. Required fields are marked *