Single String

TWINKLE TWINKLE LITLE STAR SINGLE STRING GUITAR TABS

Twinkle Twinkle Litle Star Single String Guitar Tabs

Twinkle Twinkle Litle Star Single String Guitar Tabs

Twinkle Twinkle Little Star 
Genre: Rhyme
Language: English
 
 
This is a beginner single string guitar lesson. To play this rhyme well you have to know the basic guitar lesson like the C major scale. If you don’t know, you can learn How to Play a C Major scale.

Time Signature: 2/4

Scale: C major

 Twinkle Twinkle Little Star Beginner  Guitar Tabs Ver.1 

 

E|--8-8-15-15-17-17-15---------------| 
B|-----------------------------------| 
G|-----------------------------------| 
D|-----------------------------------| 
A|-----------------------------------| 
E|-----------------------------------|
Twinkle Twinkle Little Star 
   

E|--13-13-12-12-10-10-8--------------| 
B|-----------------------------------| 
G|-----------------------------------| 
D|-----------------------------------| 
A|-----------------------------------| 
E|-----------------------------------|
How Are Wonder What You Are

E|--15-15-13-13-12-12-10-------------| 
B|-----------------------------------| 
G|-----------------------------------| 
D|-----------------------------------| 
A|-----------------------------------| 
E|-----------------------------------|
Up Above The World So High


E|--15-15-13-13-12-12-10-------------| 
B|-----------------------------------| 
G|-----------------------------------| 
D|-----------------------------------| 
A|-----------------------------------| 
E|-----------------------------------|
Like A Diamond In The Sky

E|--8-8-15-15-17-17-15---------------| 
B|-----------------------------------| 
G|-----------------------------------| 
D|-----------------------------------| 
A|-----------------------------------| 
E|-----------------------------------|
Twinkle Twinkle Little Star 
   

E|--13-13-12-12-10-10-8--------------| 
B|-----------------------------------| 
G|-----------------------------------| 
D|-----------------------------------| 
A|-----------------------------------| 
E|-----------------------------------|
How Are Wonder What You Are


Loading...

Leave a Reply

Your email address will not be published. Required fields are marked *