Guitar Tabs

TWINKLE TWINKLE LITLE STAR BEGINNER GUITAR TABS

Twinkle Twinkle Litle Star Beginner Guitar Tabs

Twinkle Twinkle Litle Star Beginner Guitar Tabs

Twinkle Twinkle Little Star 
Genre: Rhyme
Language: English
 
 
This is a beginner guitar exercise. To play this you have to know the basic guitar lesson like the C major scale. If you don’t know, you can learn How to Play a C Major scale.
 
Time Signature: 2/4
Middle Octave

E|-----------------------------------| 
B|-----------------------------------| 
G|------0-0-2-2-0--------------------| 
D|-----------------------------------| 
A|--3-3------------------------------| 
E|-----------------------------------|

Twinkle Twinkle Litle star

E|-----------------------------------| 
B|-----------------------------------| 
G|-----------------------------------| 
D|--3-3-2-2-0-0----------------------| 
A|--------------3--------------------| 
E|-----------------------------------|
How Are Wonder What You Are

E|-----------------------------------| 
B|-----------------------------------| 
G|--0-0------------------------------| 
D|------3-3-2-2-0-0------------------| 
A|------------------3----------------| 
E|-----------------------------------|
Up Above The World So High

E|-----------------------------------| 
B|-----------------------------------| 
G|--0-0------------------------------| 
D|------3-3-2-2-0-0------------------| 
A|------------------3----------------|

E|-----------------------------------|
Like A Diamond In The Sky

E|-----------------------------------| 
B|-----------------------------------| 
G|------0-0-2-2-0--------------------| 
D|-----------------------------------| 
A|--3-3------------------------------| 
E|-----------------------------------|
Twinkle Twinkle Litle star

E|-----------------------------------| 
B|-----------------------------------| 
G|-----------------------------------| 
D|--3-3-2-2-0-0----------------------| 
A|--------------3--------------------| 
E|-----------------------------------|

How Are Wonder What You Are

High Octave/ 2nd Octave
E|------3-3-5-5-3--------------------| 
B|-----------------------------------| 
G|--5-5------------------------------| 
D|-----------------------------------| 
A|-----------------------------------|

E|-----------------------------------|
Twinkle Twinkle Little Star

E|-----------------------------------| 
B|--6-6-5-5-3-3----------------------| 
G|--------------5--------------------| 
D|-----------------------------------| 
A|-----------------------------------| 
E|-----------------------------------|
How Are Wonder What You Are

E|--3-3------------------------------| 
B|------6-6-5-5-3--------------------| 
G|-----------------------------------| 
D|-----------------------------------| 
A|-----------------------------------| 
E|-----------------------------------|
Up Above The World So High

E|--3-3------------------------------| 
B|------6-6-5-5-3--------------------| 
G|-----------------------------------| 
D|-----------------------------------| 
A|-----------------------------------| 
E|-----------------------------------|
Like A Diamond In The Sky

E|------3-3-5-5-3--------------------| 
B|-----------------------------------| 
G|--5-5------------------------------| 
D|-----------------------------------| 
A|-----------------------------------| 
E|-----------------------------------|
Twinkle Twinkle Little Star

E|-----------------------------------| 
B|--6-6-5-5-3-3----------------------| 
G|--------------5--------------------| 
D|-----------------------------------| 
A|-----------------------------------| 
E|-----------------------------------|
How Are Wonder What You Are

Twinkle Twinkle  Guitar Tabs Ver .2 Single Strings

 


Loading...

Leave a Reply

Your email address will not be published. Required fields are marked *