Guitar Prelude/Interlude

TU MERI ZINDAGI HAI || AASHIQUI || INTERLUDE & PRELUDE || GUITAR TABS

Tu meri Zindagi Hai Guitar prelude/interlude
Tu Meri Zindagi Hai Guitar Interlude/Prelude
Song: Tu Meri Zindagi Hai
Film: Aashiqui
Singer: Kumar Sanu
Music: Nadeem Shrawan
Lyrics: Sameer
Label: T-Series
Language: HindiScale: Bb Minor

 

Guitar

E|-----------------------------------| 
B|------2-------1---2-1-------2-1----| 
G|----3-----1-3---------3---------3--| 
D|--3---------------------4----------| 
A|-----------------------------------| 
E|-----------------------------------|

Synth
Tu uu uu meri zindagi hai
Tu uu u u meri har khushi hai
Bbm
E|--1-------1------------------------| 
B|----2-1---2------------------------| 
G|--------3-3------------------------| 
D|----------3------------------------| 
A|-----------------------------------| 
E|-----------------------------------|

 

Interlude
E|------6-6-7-8-------6-4-6-4--------
B|--6-7-----------6-7---------------- 
G|----------------------------------- 
D|----------------------------------- 
A|----------------------------------- 
E|-----------------------------------


E|--------------------9-8-6-4------- 
B|--4-6-7-7-7-7-7-7-7---------7-6-7- 
G|---------------------------------- 
D|---------------------------------- 
A|---------------------------------- 
E|----------------------------------

E|6-6--------------------------------| 
B|-----------------------------------| 
G|-----------------------------------| 
D|-----------------------------------| 
A|-----------------------------------| 
E|-----------------------------------|

Aashiqui Ke Liye Guitar Tabs
Aashiqui Ke Liye Guitar Chords
Dheere Dheere Se Guitar Chords

www.tgtutorials.com


Loading...

Leave a Reply

Your email address will not be published. Required fields are marked *