Guitar Tabs

PIRATES OF THE CARIBBEAN (Main Theme) | GUITAR TABS

Pirates Of The Caribbean Theme Guitar Tab in fingerstyle

Pirates Of The Caribbean Guitar Tabs

Song: Pirates Of The Caribbean Theme
Presenting Pirates Of The Caribbean Theme Guitar Tab in fingerstyle


Tunning: E B G D A D

E|----------------------------------- 
B|----------------------------------- 
G|----------------------------------- 
D|0--0-0-0-0--0--0-0-0-0--0--0-0-0-0- 
A|----------------------------------- 
D|-----------------------------------

E|-----------------------------------| 
B|-----------------------------------| 
G|-----------------------------------| 
D|-0--0------------------------------| 
A|-----------------------------------| 
D|-----------------------------------|
      D5(9)       Bb       C
E|-------------0-1-1---1-3-0-0------- 
B|---1-3-3---3---3-3-------1-1---3-1- 
G|-2---2-2-------3-3-------0-0------- 
D|-----0---0------------------------- 
A|---------------1-1-------3---3----- 
D|-----------------------------------
   D5(9)
E|-----------------------------------| 
B|1h3--------------------------------| 
G|0h2--------------------------------| 
D|0---0-0----------------------------| 
A|-----------------------------------| 
D|-----------------------------------|
        D5(9)    F          C
E|-------------0-1-1---1-3-0-0------- 
B|---1-3-3---3---1-1-------1-1---3-1- 
G|-2---2-2-------2-2-------0-0------- 
D|-----0---0------------------------- 
A|-------------------------3---3----- 
D|---------------3---3---------------
 D5(9)
E|-----------------------------------| 
B|1h3--------------------------------| 
G|0h2--------------------------------| 
D|0---0-0----------------------------| 
A|-----------------------------------| 
D|-----------------------------------|


       D5(9)      Gm                           
E|--------------1-3-3---3-5-6-6---5-3- 
B|----1-3-3---3---3-3----------------- 
G|--2---2-2-------3-3----------------- 
D|------0---0------------------------- 
A|--------------------------0---0----- 
D|----------------5---5---------------
                               A
E|5--------0-1-1---3-5-------1-0-0-1- 
B|--3----3-------------3---3---2----- 
G|--2--------------------------2----- 
D|0---0------------------------2----- 
A|-----------1---1---0---0-----0----- 
D|-----------------------------------

  A
E|0----------------------------------| 
B|2----------------------------------| 
G|2----------------------------------| 
D|2----------------------------------| 
A|0----------------------------------| 
D|-----------------------------------|





 D5(9) Bb C
E|-------------0-1-1---1-3-0-0------- 
B|---1-3-3---3---3-3-------1-1---3-1- 
G|-2---2-2-------3-3-------0-0------- 
D|-----0---0------------------------- 
A|---------------1-1-------3---3----- 
D|-----------------------------------

 D5(9)
E|-----------------------------------| 
B|1h3--------------------------------| 
G|0h2--------------------------------| 
D|0---0-0----------------------------| 
A|-----------------------------------| 
D|-----------------------------------|




       D5(9) Gm                           
E|--------------1-3-3---3-5-6-6---5-3- 
B|----1-3-3---3---3-3----------------- 
G|--2---2-2-------3-3----------------- 
D|------0---0------------------------- 
A|--------------------------0---0----- 
D|----------------5---5---------------

E|5--------0-1-1---3-5-------1-0-0---
B|--3----3-------------3---3--------- 
G|--2-------------------------------- 
D|0---0------------------------------ 
A|-----------1---1---0---0-----0---0- 
D|-----------------------------------

 D5(9) C Bb A Bb/A
E|----------0-1-1-3--5-------6------- 
B|-3-1-3-3--1-3-3----2-5-2---3-6-3--- 
G|-----2-2--0-3-3----2-----2-3-----3- 
D|-------------------2-------3------- 
A|-----0-0--3-1-1----0-------0------- 
D|-----------------------------------

   A Bb/A A
E|0-0--1---0------------------------| 
B|2-2--3---2------------------------| 
G|2-2--3---2------------------------| 
D|----------------------------------| 
A|0-0--0---0------------------------| 
D|----------------------------------|

    Dm     Bb/D Dm       C5 D5
E|-5-5-5---6----5----3-3-3-3-5------| 
B|-6-6-6---6----6----1-1-1-1-3------| 
G|-7-7-7---7----7-------------------| 
D|-0-0-0---0----0-------------------| 
A|-------------------3-3-3-3-5------| 
D|----------------------------------|

   Dm      Bb/D Dm G5 F5 E5 D5
E|-5-5-5---6----5-------------------| 
B|-6-6-6---6----6-------------------| 
G|-7-7-7---7----7-------------------| 
D|-0-0-0---0----0----5---3---2---0--| 
A|-------------------5---3---2---0--| 
D|-------------------5---3---2---0--|

E|---0-1---3-5--3-1-0--1-3-5-3-------| 
B|-3---------------------------------| 
G|-------2--------0------0-----0-----| 
D|-----0-----------------------------| 
A|--------------3------------3-------| 
D|---------------------3-------------|

                       D5(9)
E|-1-3-5---3-1--0-1-0------0--------| 
B|---------------------3-----1-3----| 
G|-------0---------------2-------2--| 
D|-----0---------------0-------0----| 
A|--------------0-------------------| 
D|----------------------------------|

          Dm             Bb
E|---0-1---0-1-3-1-3-5-3-1----------| 
B|-3-----------------------3--------| 
G|-------2-------0---------3--------| 
D|-----0---------------------3------| 
A|-------------3-----0-----1--------| 
D|----------------------------------|



E|---0-1-3-5-6---3-1---3-0----------| 
B|-3-----------3------------3-------| 
G|-------------3-----0--------2-----| 
D|-----------------0--------0-------| 
A|----------------------------------| 
D|-----------5----------------------|

D5 Bb/F Dm
E|—0-5–x–6–x–5–5—5-3——-|
B|-3—6–x–3–x–6–6————-|
G|—–7–x–3–x–7–7—0———|
D|—–0–x–3–x–0—-0———–|
A|——–x—–x———3———|
D|——–x—–x——————-|

Gm Dm
E|-x–3–x–1–x-0-1-0—————|
B|-x–3–x–3–x——-3————-|
G|-x–3–x–2–x———2———–|
D|-x–5–x–0–x——-0————-|
A|-x–5–x—–x-0——————-|
D|-x–5–x—–x———————|

       Dm    Bb/F  Dm
E|---0-5--x--6--x--5-5---5-3---------| 
B|-3---6--x--3--x--6-6---------------| 
G|-----7--x--3--x--7-7---0-----------| 
D|-----0--x--3--x--0---0-------------| 
A|--------x-----x--------3-----------| 
D|--------x-----x--------------------|







 Gm Dm D5
E|-x--3--x--1--x-0-1-0----------------| 
B|-x--3--x--3--x-------3--------------| 
G|-x--3--x--2--x-------2--------------| 
D|-x--3--x--0--x-------0--------------| 
A|-x--3--x-----x-0-----0--------------| 
D|-x--3--x-----x-------0--------------|

www.tgtutorials.com


Loading...

Leave a Reply

Your email address will not be published. Required fields are marked *