Guitar Intro

O O JAANE JANA || GUITAR INTRO LESSON

       O O Jaane Jana Guitar Intro Lesson

       O O Jaane Jana Guitar Intro Lesson

Film : Pyaar Kiya To Darna Kiya
Singer : Kamaal Khan
Music : Jatin-Lalit
Lyrics : Sameer
Label: T-Series

Presenting “O O Jaane Jana Guitar Intro”
Oh Oh  Jane Jaana Guitar Tune is one of the most popular and famous Guitar Tune in Bollywood music. 

O O Jaane Jana Guitar Chords 

Guitar Intro
E|-----------------------------------| 
B|-----------------------------------| 
G|---------9-7-9---------------------| 
D|--7--7-7-------10------------------|
A|-----------------------------------| 
E|-----------------------------------|

E|-----------------------------------| 
B|-----------------------------------| 
G|--7-7------------------------------| 
D|------9-7-9-5/7-7-5----------------| 
A|-----------------------------------| 
E|-----------------------------------|

E|-----------------------------------| 
B|-----------------------------------| 
G|-----------------------9-----------| 
D|--5-9-9-9-9--9--7--7-7-------------| 
A|-----------------------------------| 
E|-----------------------------------|

{To Play Fast below notes
Practice more and more} 
E|-----------------------------------| 
B|-----------------------------------| 
G|7-9----7---------------------------| 
D|----10---9-10-7--------------------| 
A|-----------------------------------| 
E|-----------------------------------|x4

O O Jaane Jana Guitar Chords 

 


Loading...

Leave a Reply

Your email address will not be published. Required fields are marked *