Guitar Intro

KYA HUA TERA VADA || MOHAMMAD RAFI || GUITAR INTRO LESSON

Kya Hua Tera Vada Guitar INTRO LESSON

Kya Hua Tera Vada Guitar INTRO LESSON

Song: Kya Hua Tera Vaada

Film: Hum Kisi Se Kam Nahi
Singer: Mohammad Rafi
Music: R.D.Burman
Language: Hindi
Year: 1977

Presenting Kya Hua Tera Vada Guitar INTRO LESSON
Kya Hua Tera Vada is a beautiful song by legend singer Mohammad Rafi. The song is composed by legend R.D.Burman for the super hit film Hum Kisi Se Kam Nahi in 1977.

Kya Hua Tera Vada Guitar Chords

Guitar Intro
E|-----------------------------------|
B|---------------3------3--1h3-------|
G|-------2---2-2----2-2--------3-----|
D|---3-3-----------------------------|
A|-----------------------------------|
E|-----------------------------------|

E|-----------------------------------|
B|-----------------------------------|
G|--3h5-3h5-3h5-3h5-2h3-2h3-2h3-2h3--|
D|-----------------------------------|
A|-----------------------------------|
E|-----------------------------------|

Guitar Counter [before Stanza 1]

E|--13-------------------13----------|
B|----13--10-11-12-10-11-------------|
G|-----------------------------------|
D|-----------------------------------|
A|-----------------------------------|
E|-----------------------------------|


Loading...

Leave a Reply

Your email address will not be published. Required fields are marked *