Single String

KARZ THEME || SINGLE STRING || GUITAR TABS

Karz Theme Single String Guitar tab

Karz Theme Guitar tabs

Song: Karz Theme
Film: Karz
Presenting Karz Theme Guitar Tabs 
This lesson is absolutely for a beginner.

 

  On 1st string
 A Minor 
E|---7-5-7-8--7-5-7-8--7-5-7-8--5----| 
B|-----------------------------------| 
G|-----------------------------------| 
D|-----------------------------------| 
A|-----------------------------------| 
E|-----------------------------------|

E|--5-2-5-7-4----4-5-7-5/7--5--5-----| 
B|-----------------------------------| 
G|-----------------------------------| 
D|-----------------------------------| 
A|-----------------------------------| 
E|-----------------------------------|x2

Original Scale 
E Minor
E|-----------------------------------| 
B|---7-5-7-8--7-5-7-8--7-5-7-8--5----| 
G|-----------------------------------| 
D|-----------------------------------| 
A|-----------------------------------| 
E|-----------------------------------|

E|-----------------------------------| 
B|--5-2-5-7-4----4-5-7-5/7--5--5-----| 
G|-----------------------------------| 
D|-----------------------------------| 
A|-----------------------------------| 
E|-----------------------------------|x2



Loading...

2 thoughts on “KARZ THEME || SINGLE STRING || GUITAR TABS

  1. I blog quite often and I seriously thank you for your information. This article has really peaked my interest.
    I'm going to book mark your site and keep checking for new information about once a week.
    I subscribed to your RSS feed too.

Leave a Reply

Your email address will not be published. Required fields are marked *