Guitar Prelude/Interlude

JAADU TERI NAZAR || DARR || INTERLUDE & PRELUDE || GUITAR LESSON

Jaadu Teri Nazar Guitar Intro

Jaadu Teri Nazar Guitar Intro

Song: Jaadu Teri Nazar
Film: Darr
Singer: Udit Narayan
Music: Shiv Hari
Language: Hindi
Year: 1993
Presenting Jaadu Teri Nazar Guitar Intro Lesson
“Jadu Teri Nazar” is Shahrukh Khan’s one of the most popular songs which sang by Udit Narayan in 1993.
In this lesson, we learn its beginning guitar part.

 

Guitar Intro

E|-----------------------------------|
B|-----------------------------------|
G|------7--7-7-7-7-7-5-7-5-----------|
D|--5-----------------------8-7------|
A|-----------------------------------| 
E|-----------------------------------|


E|-----------------------------------|
B|-----------------------------------|
G|------5--5-5-5-5-5---5-------------|
D|-------------------8---8--7-5------|
A|--8--------------------------------| 
E|-----------------------------------|


E|-----------------------------------
B|-----------------------------------
G|-----7--7-7-7-7-7-7/10-10-10-7-7---
D|--5------------------------------8-
A|-----------------------------------
E|-----------------------------------


E|-----------------------------------|
B|-----------------------------------|
G|-----------------------------------|
D|8-7/8-7/8-7/8-7/8-8----------------|
A|-----------------------------------|
E|-----------------------------------|


E|-----------------------------------|
B|-----------------------------------|
G|------5--5-5-5-5-5---5-------------|
D|-------------------8---8--7-5------|
A|--8--------------------------------|
E|-----------------------------------|
Stanza1
InterLude

E|-----------------------------------|
B|-----------------------------------|
G|--7-5-7-5-5------4/5--------------5|
D|-------------8-7-----5-5-5-5-7-8---|
A|-----------------------------------|
E|-----------------------------------|

E|-----------------------------------|
B|--6---6----------------------------|
G|----8---8-8--7-5-7/8--8-7-5---5-7-7|
D|----------------------------8------|
A|-----------------------------------|
E|-----------------------------------|X2

 


Loading...

Leave a Reply

Your email address will not be published. Required fields are marked *