Guitar TabsSongs

HRIDOYER RONG | GHARE AND BAIRE | GUITAR TABS

Hridoyer Rong Guitar tabs

Hridoyer Rong Guitar Tabs

Song: Hridoyer Rong
Singer: Lagnajita Chakraborty
Film Ghare And Baire
Music: Anupam Roy
Lyrics: Anupam Roy
Language: Bengali
Country: India
Year: 2018

Presenting Hridoyer Rong Guitar Tabs | Solo Lesson
“Hridoyer Rong” is a soulful composition of Anupam Roy along with the voice of  Lagnajita for “Ghare Baire”  film. In this tutorial, we’ ll learn to play the solo for the song.

Scale: C# Major

Hridoyer Rong Guitar Chords

 

E|-----------------------------------|
B|--6-6-4-4-6-4----------------------|
G|--------------6-5-3--5-5-6---------|
D|-----------------------------------|
A|-----------------------------------|
E|-----------------------------------|
Ora moner gopon chene na

E|-----------------------------------|
B|--6-6-4-4-6-4----------------------|
G|--------------6-5-3--5-5-6---------|
D|-----------------------------------|
A|-----------------------------------|
E|-----------------------------------|
Ora hridoyer rong jaane na


E|-----6-6-6-6--6-6--4-6-4---4h6-----
B|-6-7---------------------7-----7-6
G|-----------------------------------
D|-----------------------------------
A|-----------------------------------
E|-----------------------------------
Projapati dana chulo bibah basaaa re




E|-----------------------------------|
B|4----------------------------------|
G|--7--------------------------------|
D|-----------------------------------|
A|-----------------------------------|
E|-----------------------------------|
ae

E|------9-8-6-6--6-6--4-6-4----4h6---
B|--6-7---------------------7------7-
G|-----------------------------------
D|-----------------------------------
A|-----------------------------------
E|-----------------------------------
Keno raat sara jege bhari phiri bho o

E|4h6--------------------------------|
B|----7-6-4--------------------------|
G|----------7------------------------|
D|-----------------------------------|
A|-----------------------------------|
E|-----------------------------------|
O re

E|-----------------------------------|
B|--6-6-4-4-6-4----------------------|
G|--------------6-5-3--5-5-6---------|
D|-----------------------------------|
A|-----------------------------------|
E|-----------------------------------|
Ora moner gopon chene na

E|-----------------------------------|
B|--6-6-4-4-6-4----------------------|
G|--------------6-5-3--5-5-6---------|
D|-----------------------------------|
A|-----------------------------------|
E|-----------------------------------|
Ora hridoyer rong jaane na

Stanza
E|-----------------------------------|
B|--6-4-6-7-6--4---6-4-6-7-----------|
G|---------------6-------------------|
D|-----------------------------------|
A|-----------------------------------|
E|-----------------------------------|
Tumi chiro din vishon kothin

E|-------6-6-6--6-6-4/6-4-------4/6-
B|-------------------------7-7-7-----
G|-6-6-6-----------------------------
D|-----------------------------------
A|-----------------------------------
E|-----------------------------------
Tomar ghar ghar bhenge jai ora mukh
dhekhe bujhte

E|6-6--6-----------------------------|
B|-----------------------------------|
G|-----------------------------------|
D|-----------------------------------|
A|-----------------------------------|
E|-----------------------------------|
pare na


E|-----------------------------------|
B|--6-4-6-7-6--4---6-4-6-7-----------|
G|---------------6-------------------|
D|-----------------------------------|
A|-----------------------------------|
E|-----------------------------------|
Tumi chiro din vishon kothin

E|-------6-6-6--6-6-4/6-4-------4/6-
B|-------------------------7-7-7------
G|-6-6-6-----------------------------
D|-----------------------------------
A|-----------------------------------
E|-----------------------------------
Tomar ghar ghar bhese jai ora mukh
dhekhe bujhte

E|6-6--6-----------------------------|
B|-----------------------------------|
G|-----------------------------------|
D|-----------------------------------|
A|-----------------------------------|
E|-----------------------------------|
pare na

E|-----------------------------------|
B|--6-6-4-4-6-4----------------------|
G|--------------6-5-3--5-5-6---------|
D|-----------------------------------|
A|-----------------------------------|
E|-----------------------------------|
Ora emon kemon bojhena

E|-----------------------------------|
B|--6-6-4-4-6-4-------4--------------|
G|--------------6-5-3----6-6---------|
D|-----------------------------------|
A|-----------------------------------|
E|-----------------------------------|
Ora ashol karan kho jena

 

Stanza2
Tumi Chirakal Sapne matal
Hente sara jeebon dhore
Jhor brishti mathai kore

Ora moner gopon chene na
Ora hridoyer rong janenna

Projapati dana chulo
Bibah basare
Keno sara raat jege
Baari phiri ghare

Ora moner gopon chene na
Ora hridoyer rong janenna
Hridoyer Rong Guitar Chords
www.tgtutorials.com

<


Loading...

Leave a Reply

Your email address will not be published. Required fields are marked *