Guitar IntroGuitar TabsSongs

DESPACITO || INTRO || GUITAR TABS || Luis Fonsi Ft.Daddy Yankee

DEspacito Guitar Intro
 

Despacito Intro Guitar Tabs

Song: Despacito
Artist: Luis Fonsi

E|-----2-------2-------2-------2-----|
B|-------3-------3-------3-------3---|
G|--4-------4-------4-------4--------|
D|-----------------------------------|
A|-----------------------------------|
E|-----------------------------------|

E|-----3-------3-------3-------3-----|
B|-------3-------3-------3-------3---|
G|--4-------4-------4-------4--------|
D|-----------------------------------|
A|-----------------------------------|
E|-----------------------------------|

E|-----3-------3-------3-------3-----
B|-------2-------2-------2-------2---
G|--2-------2-------2-------2--------
D|-----------------------------------
A|-----------------------------------
E|-----------------------------------

E|----0------------------------------|
B|----2------------------------------|
G|----2------------------------------|
D|----2------------------------------|
A|----0------------------------------|
E|----x------------------------------|
E|----2----2----2------3----3----
B|----3-----3----3-----3-----3---
G|----4------4----4----4------4--
D|----4--------------------------
A|-------------------------------
E|-------------------------------

E|3---------2----2----2----------0----|
B|---3------3-----3-----3--------2----|
G|-----4----2------2------2------2----|
D|-------------------------------2----|
A|-------------------------------0----|
E|-------------------------------x----|


E|---7--10p-9p-7----7------7---9--10--
B|---7-----------11--------7----------
G|---7---------------------7----------
D|---x--------------------------------
A|---x--------------------------------
E|---x--------------------------------
E|12--14------14-----14--------------|
B|-------15~-----15~-----------------|
G|-----------------------------------|
D|-----------------------------------|
A|-----------------------------------|
E|-----------------------------------|

E|-------10---9---7-------7---10-9-7-
B|-----------------------------------
G|---911---9---7---------7-----------
D|-----------------------------------
A|-----------------------------------
E|-----------------------------------
E|------------10-9-7-9-10------10-9-
B|10-8------------------------------
G|----------------------------------
D|----------------------------------
A|----------------------------------
E|----------------------------------

E|10-12-9---------10---9---7---------|
B|-----------------------------------|
G|-----------9/11---9---7------------|
D|-----------------------------------|
A|-----------------------------------|
E|-----------------------------------|

www.tgtutorials.com


Loading...

Leave a Reply

Your email address will not be published. Required fields are marked *