Guitar Prelude/Interlude

CHURA LIYA HAI | GUITAR INTRO LESSON

Chua Liya Hai Guitar Intro

Chua Liya Hai Guitar Intro
Chura Liya Hai Guitar Intro

Song: Chura Liya Hai
Film: Yadon Ki Barat
Singer: Asha Bhosle & Md.Rafi
Music: R.D.Burman
Language: Hindi

Presenting Chura Liya Hai  Guitar Intro / Interlude Lesson

To play easily Must watch how to play A minor Scale
Scale A minor

You may like to play
Chura Liya Hai Guitar Chords
Chura Liya Hai Guitar Solo Lesson

{Guitar Intro}

E|-------0------------0--------------| 
B|---------1-0----------1-0----------| 
G|----2--------2---2--------2---2----| 
D|--2------------2------------3------| 
A|-----------------------------------| 
E|-----------------------------------|




E|--------------0--------------0-----| 
B|--3-0-----------1-0--------0---0---| 
G|------2-----2-------2-1---1------1-| 
D|--------3-0-------------2----------| 
A|-----------------------------------| 
E|-----------------------------------|

E|-----------------------------------| 
B|-----------------------------------| 
G|--1-2------------------------------| 
D|2----------------------------------| 
A|-----------------------------------| 
E|-----------------------------------|

Mkhda:
Chura liya hai tumne jo dil ko
Nazar nahin chura na sanam
badal ke meri tum zindagani
Kahin badal na jana sanam X2

Le liya dil hai mera dil 
Hai dil le kar mujhko na tadpana 
Chura liya....

Stanza 1




Stanza 2

Guitar Piece/ Guitar Interlude Lesson




E|-----------------------------------| 
B|-----5-----------------------------| 
G|--2-----2--2--2--4-2---------------| 
D|---------------------5-------------| 
A|-----------------------------------| 
E|-----------------------------------|

E|-----------------------------------| 
B|-----3-----------------------------| 
G|-------------4--5-4-2--------------| 
D|--5-----5--5-----------------------| 
A|-----------------------------------| 
E|-----------------------------------|






Loading...

Leave a Reply

Your email address will not be published. Required fields are marked *