Guitar IntroSongs

AMAKE AMAR MOTO THAKTE DAO || ANUPAM ROY || GUITAR INTRO LESSON

Amake Amar Moto Thakte Dao Intro Lesson

Amake Amar Moto Thakte Dao Intro Lesson

Song: Amake Amar Moto Thakte Dao

Film: Autograph
Singer: Anupam Roy
Music: Anupam Roy
Presenting Amake Amar Moto Thakte Dao Guitar Intro
Amake Amar Moto Thakte Dao is one of the most famous songs by Anupam Roy with this song he got a massive success.
To play easy way must know How to Play G Major Scale
Scale: G Major
Guitar Intro

E|--7--------------------------------|
B|-----10--8--7----------------7-----|
G|---------------7--9/11--9----------|
D|-----------------------------------|
A|-----------------------------------|
E|-----------------------------------|

E|----7--10----7---------------------|
B|---------------8-7-----------------|
G|-------------------9-7-7/9---------|
D|-----------------------------------|
A|-----------------------------------|
E|-----------------------------------|

E|-----------------------------------|
B|----7-10------7--------------------|
G|---------7/9-----------------------|
D|-----------------------------------|
A|-----------------------------------|
E|-----------------------------------|


 

 


Loading...

Leave a Reply

Your email address will not be published. Required fields are marked *