Guitar TabsSongs

AMAKE AMAR MOTO THAKTE DAO || ANUPAM ROY || GUITAR TABS

Amake Amar Moto Thakte Dao Guitar Tabs

Amake Amar Moto Thakte Dao Guitar Tabs

Song: Amake Amar Moto Thakte Dao

Film: Autograph
Singer: Anupam Roy
Music: Anupam Roy
Presenting Amake Amar Moto Thakte Dao Guitar Tabs.

Amake Amar Moto Thakte Dao is one of the most famous songs by Anupam Roy with this song he got a massive success.The Song is on G major scale so to play this song easily must practice G Major Scale.

Amake Amar Moto Thakte Dao Guitar Chords
Amake Amar Moto Thakte Dao Guitar Intro

E|-----------------------------------| 
B|----3-3-3-3--3-----3-5-3-----------| 
G|--4------------4-4-----------------| 
D|-----------------------------------| 
A|-----------------------------------| 
E|-----------------------------------|
Amake Amar Moto Thakte Dao
E|-----------------------------------| 
B|--3-----3-3-3-3--3-3-3-------------| 
G|----4-4----------------5-5-5-4-----| 
D|-----------------------------------| 
A|-----------------------------------| 
E|-----------------------------------|
Ami Nijeke Nijer Moto Guchiye niyechi

E|-----------------------------------| 
B|----3-3-3-3--3-----3-53-----------| 
G|--4------------4-4-----------------| 
D|-----------------------------------| 
A|-----------------------------------| 
E|-----------------------------------|
Amake Amar Moto Thakte Dao
E|-----------------------------------| 
B|--3-----3-3-3-3--3-3-3-------------| 
G|----4-4----------------5-5-5-4-4---| 
D|-----------------------------------| 
A|-----------------------------------| 
E|-----------------------------------|
Ami Nijeke Nijer Moto Guchiye niyechi

E|-----------------------------------| 
B|-----------------------3-3---------| 
G|--4-2-2-4-4-4-4--4-4-4-------------| 
D|---------------------------5-5-----| 
A|-----------------------------------| 
E|-----------------------------------|
Jeta Chilona Chilona Seta Na Paaoai Thak
E|-----------------------------------| 
B|-----------------------------------| 
G|--------------4-2h4----------------| 
D|--5--5-5-5--5----------------------| 
A|-----------------------------------| 
E|-----------------------------------|
Sab Pele Noshto Jeeban

E|-----------------------------------| 
B|----3-3-3-3-3----3-3-3-53---------| 
G|--4-----------4-4------------------| 
D|-----------------------------------| 
A|-----------------------------------| 
E|-----------------------------------|
Tomar Oi Duniyar Jhapsa Alor
E|-----------------------------------| 
B|--3-----3-3-3-3-3-3-3-3------------| 
G|----4-4-----------------5-5-5-5----| 
D|-----------------------------------| 
A|-----------------------------------| 
E|-----------------------------------|
Kichu Sondher Guro Hawa Kancher Moto
E|-----------------------------------| 
B|-----------------------3-3---------| 
G|--4-2-2-4-4-4-4--4-4-4-------------| 
D|---------------------------5-5-----| 
A|-----------------------------------| 
E|-----------------------------------|
Jodi Ure Jete Chao Tobe Ga Bhasiye Dao
E|-----------------------------------| 
B|-----------------------------------| 
G|--------------2/4-2----------------| 
D|--5--5-5-5--5-------54-5----------| 
A|-----------------------------------| 
E|-----------------------------------|
Durbine Chokh Rakhbona Na Na 
E|-----------------------------------| 
B|-----------------------------------| 
G|--4--2---------4--2----------------| 
D|--------5-4-2-------54-5----------| 
A|-----------------------------------| 
E|-----------------------------------|
Na Na Na Na Na Na Na Na

E|-----------------------------------| 
B|-----------------------------------| 
G|---4-4-4--4-2-5-5-4-2-2-2-2-2---4-4| 
D|------------------------------5----| 
A|-5---------------------------------| 
E|-----------------------------------|
Ei Jahaj Mashtulo Charkhar Tobu 
Golpo Likchi Banchbar

E|---------------------------------- 
B|---------------------------------- 
G|-----4-4-4-4-2-5-5--4-2-2-2-2-2--- 
D|---------------------------------- 
A|-5-5------------------------------ 
E|----------------------------------
AmiRakhte Chai Na Ar Tar Kono Raat 
Dupurer

E|-----------------------------------| 
B|-----------------------------------| 
G|--4-4------------------------------| 
D|5----------------------------------| 
A|-----------------------------------| 
E|-----------------------------------|
Abdar
E|-----------------------------------| 
B|-----------------------------------| 
G|4-------4-----------2---2/5--2-----| 
D|--5-5-5---2-2---5-5---5------------| 
A|-----------------------------------| 
E|-----------------------------------|
Tai Chesta Korchi Bar Bar Santre 
Par Khojar Ar

Verse1
E|-----------------------------------| 
B|----3-3-3-3--3-----3-53-----------| 
G|--4------------4-4-----------------| 
D|-----------------------------------| 
A|-----------------------------------| 
E|-----------------------------------|
Kokhono Akash Beye Chup Kore 
E|-----------------------------------| 
B|--3-----3-3-3-3--3-3-3-------------| 
G|----4-4----------------5-5---------| 
D|-----------------------------------| 
A|-----------------------------------| 
E|-----------------------------------|
Jodi Neme Aase Bhalobasa Chup Kore
E|-----------------------------------| 
B|-------------------3-3-------------| 
G|-2-4-4-4-4-4-4-4-4-----------------| 
D|----------------------5-5----------| 
A|-----------------------------------| 
E|-----------------------------------|
Chokh Bhanga Ghume Tumi Khujo Na Amai
E|-----------------------------------| 
B|-----------------------------------| 
G|----------------4-2----------------| 
D|--5-5-5-5-5-5-5--------------------| 
A|-----------------------------------| 
E|-----------------------------------|
Ashe Pashe Ami Ar Nei

E|-----------------------------------| 
B|----3-3-3--3-3----3-3-53----------| 
G|--4------------4-4-----------------| 
D|-----------------------------------| 
A|-----------------------------------| 
E|-----------------------------------|
Amar Jonno Alo Jelo Na Keu 
E|-----------------------------------| 
B|--3-----3-3--3-3-3-3-3-------------| 
G|----4-4----------------5-5-54-----| 
D|-----------------------------------| 
A|-----------------------------------| 
E|-----------------------------------|
Ami Manusher Samudre Gunechi Dheu
E|-----------------------------------| 
B|-----------------------3-3---------| 
G|-42--2-4-4--4--4-4--4-------------| 
D|---------------------------5-5-----| 
A|-----------------------------------| 
E|-----------------------------------|
Stationer chottore Hariye Gechi
E|-----------------------------------| 
B|-----------------------------------| 
G|---------------4/2--2--------------| 
D|--5--5-5-5--5---------54-5--------| 
A|-----------------------------------| 
E|-----------------------------------|
Shes traine Ghare Phirbona Na Na 
E|-----------------------------------| 
B|-----------------------------------| 
G|--4--2---------4--2----------------| 
D|--------5-4-2-------5-4-5----------| 
A|-----------------------------------| 
E|-----------------------------------|
Na Na Na Na Na Na Na Na
E|-----------------------------------| 
B|-----------------------------------| 
G|----4-4-4-4-2-5-5-4-2-2-2-2-2---4-4| 
D|------------------------------5----| 
A|-5---------------------------------| 
E|-----------------------------------|
Ei Jahaj Mashtulo Charkhar Tobu 
Golpo Likchi Banchbar
E|---------------------------------- 
B|---------------------------------- 
G|-----4-4-4-4-2-5-5--4-2-2-2-2-2--- 
D|---------------------------------- 
A|-5-5------------------------------ 
E|----------------------------------
AmiRakhte Chai Na Ar Tar Kono Raat 
Dupurer 
E|-----------------------------------| 
B|-----------------------------------| 
G|--4-4------------------------------| 
D|5----------------------------------| 
A|-----------------------------------| 
E|-----------------------------------|
Abdar
E|-----------------------------------| 
B|-----------------------------------| 
G|4-------4-----------2---2/4--2-----| 
D|--5-5-5---2-2---5-5---5------------| 
A|-----------------------------------| 
E|-----------------------------------|
Tai Chesta Korchi Bar Bar Santre 
Par Khojar Ar

E|-----------------------------------| 
B|-------------3----------3---------3| 
G|--2/4--2-4-5---4--2-4-5---4--2-4-5-| 
D|-----------------------------------| 
A|-----------------------------------| 
E|-----------------------------------|
Na Na Na Na Na Na... Na Na Na Na Na 
Na Na Na Na 
E|-----------------------------------| 
B|-------------3----------3---------3| 
G|--2/4--2-4-5---4--2-4-5---4--2-4-5-| 
D|-----------------------------------| 
A|-----------------------------------| 
E|-----------------------------------|
Na Na Na Na Na Na... Na Na Na Na Na 
Na Na Na Na

Verse2
E|-----------------------------------| 
B|----3--3-3-3-3---3-3-3/5-----------| 
G|--4------------4-------------------| 
D|-----------------------------------| 
A|-----------------------------------| 
E|-----------------------------------|
Tomar Rokte Aache Sopno Joto
E|-----------------------------------| 
B|--3-----3-3-3-3--3-3-3-------------| 
G|----4-4----------------5-5---------| 
D|-----------------------------------| 
A|-----------------------------------| 
E|-----------------------------------|
Tara Chutche Ratridin Nijer Moto
E|-----------------------------------| 
B|-------------------3---------------| 
G|-2-4-4-4-4--4-4--4-----------------| 
D|---------------------5-5-----------| 
A|-----------------------------------| 
E|-----------------------------------|
Kokhon Somoy Pele Ektu Bhebo
E|-----------------------------------| 
B|-----------------------------------| 
G|---------------4-2-----------------| 
D|--5--5-5-5-5-5---------------------| 
A|-----------------------------------| 
E|-----------------------------------|
Anguler Phanke Aami Koi

E|-----------------------------------| 
B|----3-3-3-3--3----3-3-53----------| 
G|--4------------4-4-----------------| 
D|-----------------------------------| 
A|-----------------------------------| 
E|-----------------------------------|
Hiseber Bhide Aami Chai Na Chute
E|-----------------------------------|
B|--3-----3-3--3-3-3-3-3-------------| 
G|----4-4----------------5-5-54-----| 
D|-----------------------------------| 
A|-----------------------------------| 
E|-----------------------------------|
Joto Shukno Peyaj Kali Freezer Sheete
E|-----------------------------------| 
B|-----------------------3-3---------| 
G|-42--2-4-4--4--4-4--4-------------| 
D|---------------------------5-5-----| 
A|-----------------------------------| 
E|-----------------------------------|
Aami Obelar Daal Bhate Phuriye Gechi
E|-----------------------------------| 
B|-----------------------------------| 
G|---------------4/2--2--------------| 
D|--5--5-5-5--5---------54-5--------| 
A|-----------------------------------| 
E|-----------------------------------|
Gelasser Jole Bhasbo Na Na Na

E|-----------------------------------| 
B|-----------------------------------| 
G|----4-4-4-4-2-5-5-4-2-2-2-2-2---4-4| 
D|------------------------------5----| 
A|-5---------------------------------| 
E|-----------------------------------|
Ei Jahaj Mashtulo Charkhar Tobu 
Golpo Likchi Banchbar
E|---------------------------------- 
B|---------------------------------- 
G|-----4-4-4-4-2-5-5--4-2-2-2-2-2--- 
D|---------------------------------- 
A|-5-5------------------------------ 
E|----------------------------------
AmiRakhte Chai Na Ar Tar Kono Raat 
Dupurer 
E|-----------------------------------| 
B|-----------------------------------| 
G|--4-4------------------------------| 
D|5----------------------------------| 
A|-----------------------------------| 
E|-----------------------------------|
Abdar
E|-----------------------------------| 
B|-----------------------------------| 
G|4-------4-----------2---2/4--2-----| 
D|--5-5-5---2-2---5-5---5------------| 
A|-----------------------------------| 
E|-----------------------------------|
Tai Chesta Korchi Bar Bar Santre 
Par Khojar Ar

E|-----------------------------------| 
B|-------------3----------3---------3| 
G|--2/4--2-4-5---4--2-4-5---4--2-4-5-| 
D|-----------------------------------| 
A|-----------------------------------| 
E|-----------------------------------|
Na Na Na Na Na Na... Na Na Na Na Na 
Na Na Na Na

E|-----------------------------------| 
B|-------------3----------3---------3| 
G|--2/4--2-4-5---4--2-4-5---4--2-4-5-| 
D|-----------------------------------| 
A|-----------------------------------| 
E|-----------------------------------|
Na Na Na Na Na Na... Na Na Na Na Na 
Na Na Na Na



Correction Accepted Through Comments

 


Loading...

Leave a Reply

Your email address will not be published. Required fields are marked *