Guitar TabsSongs

ALWAYS REMEMBER US THIS WAY || LADY GAGA || GUITAR TABS

Always Remember Us This Way Guitar Tabs

Always Remember Us This Way Guitar Tabs

Song: Always Remember Us This Way
Artist: Lady Gaga
Album: A Star Is Born
Presenting Always Remember Us This Way Guitar Tabs
Scale: C Major Scale
E|-----------------------------------| 
B|------5---------5------------------| 
G|--5-7---7-----7---7-5--------------| 
D|----------7-----------7-5----------| 
A|-----------------------------------| 
E|-----------------------------------|

That Arizona sky burning in your eyes

E|-----------------------------------| 
B|-----------------------------------| 
G|----5---5---5--5-5-5/7-4-----------| 
D|--7---7---7------------------------| 
A|-----------------------------------| 
E|-----------------------------------|
You look at me and, babe, I wanna catch on fire

E|-----------------------------------| 
B|------5---------5------------------| 
G|--5-7---7-----7---7-5--------------| 
D|----------7-----------7-5----------| 
A|-----------------------------------| 
E|-----------------------------------|
It’s buried in my soul like California gold

E|-----------------------------------| 
B|-----------------------------------| 
G|----5---5---5--5-5-5/7-4-----------| 
D|--5---7---7------------------------| 
A|-----------------------------------| 
E|-----------------------------------|
You found the light in me that I couldn’t find

E|------5-5-5-5-8-8-8----------------| 
B|--5-8---------------8-8/10---------| 
G|-----------------------------------| 
D|-----------------------------------| 
A|-----------------------------------| 
E|-----------------------------------|
So when I’m all choked up
And I can’t find the words

E|------5-5-5-5-8-8-8----------------| 
B|--5-8---------------8-5-3----------| 
G|-----------------------------------| 
D|-----------------------------------| 
A|-----------------------------------| 
E|-----------------------------------|
Every time we say goodbye
Baby, it hurts

E|------5----------------------------| 
B|--5-8------8-5-3-------------------| 
G|-----------------------------------| 
D|-----------------------------------| 
A|-----------------------------------| 
E|-----------------------------------|
When the sun goes down

E|-----------------------------------| 
B|-----------5/8---------------------| 
G|--5---5--5-------------------------| 
D|----7------------------------------| 
A|-----------------------------------| 
E|-----------------------------------|
And the band won’t play

E|-----------------------------------| 
B|--5-6--5---------------------------| 
G|---------7--5-4---4-4-5------------| 
D|----------------5------------------| 
A|-----------------------------------| 
E|-----------------------------------|
I’ll always remember us this way




E|-----------------------------------| 
B|----5------------5-----------------| 
G|--7---7-5------7---7-5-------------| 
D|----------7------------7-3---------| 
A|-----------------------------------| 
E|-----------------------------------|
Lovers in the night
Poets trying to write

E|-----------------------------------| 
B|-----------------------------------| 
G|----5---5---5--5-5-5/7-4-----------| 
D|--5---7---5------------------------| 
A|-----------------------------------| 
E|-----------------------------------|
We don’t know how to rhyme
But damn we try

E|----8--7-5---5---------------------| 
B|-----------8-----------------------| 
G|--5--------------------------------| 
D|-----------------------------------| 
A|-----------------------------------| 
E|-----------------------------------|
But all I really know

E|----8--7-5---5---------------------| 
B|--5--------8---8-6-----------------| 
G|-----------------------------------| 
D|-----------------------------------| 
A|-----------------------------------| 
E|-----------------------------------|
You’re where I wanna go

E|----8---8---8--8-8/10-7------------| 
B|--8---8---8------------------------| 
G|-----------------------------------| 
D|-----------------------------------| 
A|-----------------------------------| 
E|-----------------------------------|
The part of me that’s you will never die

E|------5-5-5-5-8-8-8----------------| 
B|--5-8---------------8-8/10---------| 
G|-----------------------------------| 
D|-----------------------------------| 
A|-----------------------------------| 
E|-----------------------------------|

So when I’m all choked up

And I can’t find the words


E|------5-5-5-5-8-8-8----------------| 
B|--5-8---------------8-5-3----------| 
G|-----------------------------------| 
D|-----------------------------------| 
A|-----------------------------------| 
E|-----------------------------------|
Every time we say goodbye
Baby, it hurts


E|------5----------------------------| 
B|--5-8------8-5-3-------------------| 
G|-----------------------------------| 
D|-----------------------------------| 
A|-----------------------------------| 
E|-----------------------------------|
When the sun goes down

E|-----------------------------------| 
B|-----------5/8---------------------| 
G|--5---5--5-------------------------| 
D|----7------------------------------| 
A|-----------------------------------| 
E|-----------------------------------|
And the band won’t play


E|-----------------------------------| 
B|--5-6--5---------------------------| 
G|---------7--5-4---4-4-5------------| 
D|----------------5------------------| 
A|-----------------------------------| 
E|-----------------------------------|
I’ll always remember us this way










Oh, yeah
I don’t wanna be just a memory, baby, yeah

E|------5-5-5-5-8-8-8----------------| 
B|--5-8---------------8-8/10---------| 
G|-----------------------------------| 
D|-----------------------------------| 
A|-----------------------------------| 
E|-----------------------------------|
So when I’m all choked up
And I can’t find the words

E|——5-5-5-5-8-8-8—————-|
B|–5-8—————8-53———-|
G|———————————–|
D|———————————–|
A|———————————–|
E|———————————–|
Every time we say goodbye
Baby, it hurts

E|——5—————————-|
B|–5-8——8-53——————-|
G|———————————–|
D|———————————–|
A|———————————–|
E|———————————–|
When the sun goes down

E|———————————–|
B|———–5/8———————|
G|–5—5–5————————-|
D|—-7——————————|
A|———————————–|
E|———————————–|
And the band won’t play

E|———————————–|
B|–5-6–5—————————|
G|———7–5-4—4-4-5————|
D|—————-5——————|
A|———————————–|
E|———————————–|
I’ll always remember us this way




E|------5----------------------------| 
B|--5-8---8-53----------------------| 
G|-----------------------------------| 
D|-----------------------------------| 
A|-----------------------------------| 
E|-----------------------------------|
When you look at me

E|-----------------------------------| 
B|-----------5/8---------------------| 
G|--5---5--7-------------------------| 
D|----7------------------------------| 
A|-----------------------------------| 
E|-----------------------------------|
And the whole world fades

E|-----------------------------------| 
B|--5-6-5----------------------------| 
G|--------7--5-4---4/5----5---5------| 
D|---------------5----------5--------| 
A|-----------------------------------| 
E|-----------------------------------|
I’ll always remember us this way






Loading...

Leave a Reply

Your email address will not be published. Required fields are marked *