Guitar Intro

SURAIYA | THUGS OF HINDOSTAN | GUITAR INTRO LESSON

Suraiya Guitar Intro

 

Suraiya Guitar Intro

Song: Suraiya
Film: Thugs of Hindostan
Singer: Vishal Dadlani
Shreya Ghoshal
Music: Ajay Atul
Lyrics: Amitabh Bhattacharya
Language: Hindi
Year: 2018

Introducing Suraiya Guitar Intro Lesson


Scale: C# Major

 

 

Intro:
E|--9--9-8-9--9-8-9-11-9-8-6--8--
B|-------------------------------
G|-------------------------------
D|-------------------------------
A|-------------------------------
E|-------------------------------

E|9--9-8-6--------6-8-9--9-8-9--9-8--
B|---------9-9--9--------------------
G|-----------------------------------
D|-----------------------------------
A|-----------------------------------
E|-----------------------------------

E|9-11-9-8-6--8--9--9-8-6------6---
B|------------------------9--9---9-
G|---------------------------------
D|---------------------------------
A|---------------------------------
E|---------------------------------


E|-----------------------------------|
B|7-6-7-9----------------------------|
G|-----------------------------------|
D|-----------------------------------|
A|-----------------------------------|
E|-----------------------------------|

Loading...

Leave a Reply

Your email address will not be published. Required fields are marked *