Guitar Intro

Soch Na Sake | Airlift | Intro Guitar Lesson

Soch Na Sake Guitar Intro Lesson.

 

Soch Na Sake | Airlift | Intro Guitar Lesson

Song: Soch Na Sake
Film: Airlift
Singer: Arijit Singh & Tulsi Kumar
Music: Amaal Malik
Language: Hindi
Country: India

Presenting Soch Na Sake Guitar Intro Lesson.

Scale  : Amajor

For the full song, you  like
Soch Na Sake Guitar Chords

E|--4/5-4----------------------------| 
B|--------5-5-------5----------------| 
G|------------7-6-7------------------| 
D|-----------------------------------| 
A|-----------------------------------| 
E|-----------------------------------|

E|--4/5-4----------------------------| 
B|--------5-5-------5----------------| 
G|------------7-6-7------------------| 
D|-----------------------------------| 
A|-----------------------------------| 
E|-----------------------------------|

E|--4/5-4----------------------------| 
B|--------5-5-------5----------------| 
G|------------7-6-7------------------| 
D|-----------------------------------| 
A|-----------------------------------| 
E|-----------------------------------|

E|-----------------------------------| 
B|------5----------------------------| 
G|--4/6---6-4-4----------------------| 
D|-----------------------------------| 
A|-----------------------------------| 
E|-----------------------------------|




Repeat again
E|--4/5-4----------------------------| 
B|--------5-5-------5----------------| 
G|------------7-6-7------------------| 
D|-----------------------------------| 
A|-----------------------------------| 
E|-----------------------------------|

E|--4/5-4----------------------------| 
B|--------5-5-------5----------------| 
G|------------7-6-7------------------| 
D|-----------------------------------| 
A|-----------------------------------| 
E|-----------------------------------|

E|--4/5-4----------------------------| 
B|--------5-5-------5----------------| 
G|------------7-6-7------------------| 
D|-----------------------------------| 
A|-----------------------------------| 
E|-----------------------------------|

E|-----------------------------------| 
B|------5----------------------------| 
G|--4/6---6-4-4----------------------| 
D|-----------------------------------| 
A|-----------------------------------| 
E|-----------------------------------|

For the full song, you  like
Soch Na Sake Guitar Chords

 

(adsbygoogle = window.adsbygoogle || []).push({});

www.tgtutorials.com


Loading...

Leave a Reply

Your email address will not be published. Required fields are marked *