Guitar Tabs

PAL- JALEBI GUITAR TAB | GUITAR SOLO LESSON | ARIJIT SINGH & SHREYA GHOSHAL

 Pal Guitar Tab

 

 Pal Guitar Tab

Song: Pal
Film: Jalebi
Singer: Arijit Singh and Shreya Ghoshal
Music: Javed- Moshin
Lyrics: Prashant Ingole & Kunaal Vermaa
Label: Sony Music India
Language: Hindi
Country: India
Year: 2018

Presenting Pal –Jalebi Guitar Tab
Pal is a beautiful romantic duet song, sang by Arijit Singh and Shreya Ghoshal For the movie Jalebi.
  
All Songs From Jalebi


Scale: GMinor
You may like to play
Pal Jalebi Guitar Chords

 

 

{Arijit Singh}
E|-----------------------------------| 
B|-----------------------------------| 
G|--7--7-5-5-5/7-7-5-5-5/7-5-3-3-3/5-| 
D|-----------------------------------| 
A|-----------------------------------| 
E|-----------------------------------|
Pal ek Pal mein hi tham sa gaya

E|-----------------------------------| 
B|-----------------------------------| 
G|--7--7-5-5-5/7-7-5-5-5/7-5-3-3-3/5-| 
D|-----------------------------------| 
A|-----------------------------------| 
E|-----------------------------------|
Tu hath mein hath jo de gaya

E|-----------------------------------| 
B|---------------3----------------3--| 
G|--2-2-3-2--------5--2-2-3-2-------5| 
D|----------5-5---------------5-5----| 
A|-----------------------------------| 
E|-----------------------------------|
Chalun mein jahan jaye tu
Dayein main tere bayein tu
                                
E|-----------------------------------| 
B|--------------3--------------------| 
G|--2-2-3-2-------5--3-2-------------| 
D|----------5-5----------5-----------| 
A|-----------------------------------| 
E|-----------------------------------|
Ho rut naya laye tu sathiyaa

E|-----------------------------------| 
B|---------------3----------------3--| 
G|--2-2-3-2--------5--2-2-3-2-------5| 
D|----------5-5---------------5-5----| 
A|-----------------------------------| 
E|-----------------------------------| 
Hasun mein jab gaye tu 
Rou mein murjhaye tu
E|-----------------------------------| 
B|--------------3--------------------| 
G|--2-2-3-2-------5--3-2-------------| 
D|----------5-5----------5-----------| 
A|-----------------------------------| 
E|-----------------------------------|

Bheegun mein barsaayein tu saathiya

 

Verse 1
{Arijit Singh}
E|-----------------------------------| 
B|--3-6-6/8--6--3---3-4-3------------| 
G|----------------5------------------| 
D|-----------------------------------| 
A|-----------------------------------| 
E|-----------------------------------|
Saya mera haii teri shakal

E|-----------------------------------| 
B|--3-6-6/8--6--3---3-4-3------------| 
G|----------------5------------------| 
D|-----------------------------------| 
A|-----------------------------------| 
E|-----------------------------------|
Haal hai aisa kuch aaj kal

E|-----------------------------------| 
B|--3-3h4----------------------------| 
G|--------53-5--3-5-3-5-------------| 
D|-----------------------------------| 
A|-----------------------------------| 
E|-----------------------------------|
Subah main hun tu dhup hai

E|-----------------------------------| 
B|--3-3h4------------3-3------------| 
G|--------53-5--3-5------5----------| 
D|-----------------------------------| 
A|-----------------------------------| 
E|-----------------------------------|
Main aayina hu tu rup hai

E|-----------------------------------| 
B|--3-3h4----------------------------| 
G|--------5-3-5--3-5-3-5--2-3-2------| 
D|-----------------------------------| 
A|-----------------------------------| 
E|-----------------------------------|
Ye tera saath khub hai humsafar

{Shreya Ghoshal}
E|--10--10-8-8-8/10-10-8-8-8/10_12---| 
B|-----------------------------------| 
G|-----------------------------------| 
D|-----------------------------------| 
A|-----------------------------------| 
E|-----------------------------------|
Tu ishq ke saare rang

E|8-6-6-6/8--------------------------|
B|-----------------------------------| 
G|-----------------------------------| 
D|-----------------------------------| 
A|-----------------------------------| 
E|-----------------------------------|
le gaya

E|--10--10-8-8-8/10-10-8-8-8/10_12---| 
B|-----------------------------------| 
G|-----------------------------------| 
D|-----------------------------------| 
A|-----------------------------------| 
E|-----------------------------------|
Thi kheenc ke apne sang

E|8-6-6-6/8--------------------------|
B|-----------------------------------| 
G|-----------------------------------| 
D|-----------------------------------| 
A|-----------------------------------| 
E|-----------------------------------|
le gaya


E|--5-5-6-5------10--8---------------| 
B|----------8-8----------------------| 
G|-----------------------------------| 
D|-----------------------------------| 
A|-----------------------------------| 
E|-----------------------------------|
Kahin pe kho jaye chal

E|--5-5-6-5------10--8---------------| 
B|----------8-8----------------------| 
G|-----------------------------------| 
D|-----------------------------------| 
A|-----------------------------------| 
E|-----------------------------------|
Jahan ye ruk jaaye pal


E|--5-5-6-5------10--8--6-5----------| 
B|----------8-8-------------8--------| 
G|-----------------------------------| 
D|-----------------------------------| 
A|-----------------------------------| 
E|-----------------------------------|
Kabhi na phir aaye kal saathiya


Verse 2
{Arijit Singh}

E|-----------------------------------| 
B|--3-6-6/8--6--3---3-4-3------------| 
G|----------------5------------------| 
D|-----------------------------------| 
A|-----------------------------------| 
E|-----------------------------------|
Ek mange agar sau khwab dun

E|-----------------------------------| 
B|--3-6-6/8--6--3---3/8-4-3----------| 
G|----------------5------------------| 
D|-----------------------------------| 
A|-----------------------------------|
E|-----------------------------------|
Tu rahe khush main abaad hun

E|-----------------------------------| 
B|--3-3h4----------------------------| 
G|--------5-3-5--3-5-3-5-------------| 
D|-----------------------------------| 
A|-----------------------------------| 
E|-----------------------------------|
Tu sabse juda juda sa hai

E|-----------------------------------| 
B|--3-3h4------------3-3-------------| 
G|--------5-3-5--3-5------5----------| 
D|-----------------------------------| 
A|-----------------------------------| 
E|-----------------------------------|
Tu apni tarah tarah sa hai

E|-----------------------------------| 
B|--3-3h4----------------------------| 
G|--------5-3-5--3-5-3-5--2-3-2------| 
D|-----------------------------------| 
A|-----------------------------------| 
E|-----------------------------------|
Mujhe lagta nahi hai tu dusra

{Shreya Ghoshal}
E|--10--10-8-8-8/10-10-8-8-8/10_12---| 
B|-----------------------------------| 
G|-----------------------------------| 
D|-----------------------------------| 
A|-----------------------------------| 
E|-----------------------------------|
Pal ek pal mein hi tham

E|86-6-6/18-------------------------|
B|-----------------------------------| 
G|-----------------------------------| 
D|-----------------------------------| 
A|-----------------------------------| 
E|-----------------------------------|
sa gaya

E|--10--10-8-8-8/10-10-8-8-8/10_12---| 
B|-----------------------------------| 
G|-----------------------------------| 
D|-----------------------------------| 
A|-----------------------------------|
E|-----------------------------------|
Tu hath mein haath jo

E|8-6-6-6/18-------------------------|
B|-----------------------------------| 
G|-----------------------------------| 
D|-----------------------------------| 
A|-----------------------------------|

E|-----------------------------------|
De gaya

E|--5-5-6-5------10--8---------------| 
B|----------8-8----------------------| 
G|-----------------------------------| 
D|-----------------------------------| 
A|-----------------------------------| 
E|-----------------------------------|
Chalun mein jaha jaye tu

E|--5-5-6-5------10--8---------------| 
B|----------8-8----------------------| 
G|-----------------------------------| 
D|-----------------------------------| 
A|-----------------------------------|

E|-----------------------------------|
Dayein mein tere baanyein tu

E|--5-5-6-5------10--8--6-5----------| 
B|----------8-8-------------8--------| 
G|-----------------------------------| 
D|-----------------------------------| 
A|-----------------------------------| 
E|-----------------------------------|
Ho rut naya laye tu saathiya

{Arijit Singh}
E|-----------------------------------| 
B|---------------3----------------3--| 
G|--2-2-3-2--------5--2-2-3-2-------5| 
D|----------5-5---------------5-5----| 
A|-----------------------------------| 
E|-----------------------------------| 
Hasun mein jab gaye tu 
Rou mein murjhaye tu

E|-----------------------------------| 
B|--------------3--------------------| 
G|--2-2-3-2-------5--3-2-------------| 
D|----------5-5----------5-----------| 
A|-----------------------------------| 
E|-----------------------------------|
Bheegun mein barsaayein tu saathiya


You may like to play
All Songs From Jalebi
Pal Jalebi Guitar Chords









www.tgtutorials.com


Loading...

Leave a Reply

Your email address will not be published. Required fields are marked *