Guitar Tabs

TERA FITOOR || ARIJIT SINGH || GUITAR TAB || GUITAR SOLO LESSON

This is an image of Utkarsh Sharma and Ishita Chauhan in Tera Fitoor Guitar Tab
Song: Tera Fitoor
Film: Genius
Singer: Arijit Singh
Music: Himesh Rehamiya
Lyrics: Kumaar
Music Labels:

Presenting Tera Fitoor Guitar Tab/ Guitar Solo Lesson.
Tera Fitoor is a beautiful romantic song by Arijit Singh composed by Himesh Rehamiya
for the film Genius.

The Song is in A major scale

E|------------------------------------|
B|------------------------------------|
G|--6-6-4-4----6h7-4--4-6-4-4---------|
D|----------------------------7-7-7---|
A|------------------------------------|
E|------------------------------------|
Tera Fitoor Jabse Chad Gaya Re
Tera Fitoor Jabse Chad Gaya Re

E|--4-4-4/5---------------------------|
B|----------5-5/7---------------------|
G|---------------7-7/9--6-6-5-6-7-4---|
D|------------------------------------|
A|------------------------------------|
E|------------------------------------|
Ishq Jo Jara Sa Tha     Wo Badh Gaya Re
Tera Fitoor Jabse Chad Gaya Re

E|------------------------------------|
B|-----------------5--9-5-------------|
G|--7-7-7-7-7--7-7--------------------|
D|------------------------------------|
A|------------------------------------|
E|------------------------------------|
Tu Jo Mere Sang Chalne Lage

E|------------------------------------|
B|------------------------------------|
G|--------------5--7-5-5--------------|
D|7-7-7-4/7-7-7-----------------------|
A|------------------------------------|
E|------------------------------------|
To Meri Rahein Dhadkane Lage

{Same as previous line}
Dekhun Jo Na Ek Pal Main Tumhe
To Meri Bahein Tadapne Lage

E|--4-4-4/5---------------------------|
B|----------5-5/7---------------------|
G|---------------7-7/9--6-6-5-6-7-4---|
D|------------------------------------|
A|------------------------------------|
E|------------------------------------|
Ishq Jo Zara Sa Tha Wo Badh Gaya Re

E|------------------------------------|
B|------------------------------------|
G|--6-6-4-4----6h7-4--4-6-4-4---------|
D|----------------------------7-7-7---|
A|------------------------------------|
E|------------------------------------|
Tera Fitoor Jabse Chad Gaya Re
Tera Fitoor Jabse Chad Gaya Re

Stanza
E|------------------------------------|
B|------------------------------------|
G|----4---6-4-6---4---4---------------|
D|--6---7-------7---6---7-------------|
A|------------------------------------|
E|------------------------------------|
Haatho Se Lakeerein Yehi Kehti Hai

E|------------------------------------|
B|------------------------------------|
G|--6-4-6---4----4-4------------------|
D|--------7---6-----------------------|
A|------------------------------------|
E|------------------------------------|
Ke Zindagi Jo Hai Meri

E|------------------------------------|
B|------------------------------------|
G|--6-4-6---4----4--------------------|
D|--------7---6----5------------------|
A|------------------------------------|
E|------------------------------------|
Tujhi Mein Ab Rehti Hai

E|------------------------------------|
B|------------------------------------|
G|----4-6-4-6-4---------4-4-----------|
D|--6-----------7-6-4-7---------------|
A|------------------------------------|
E|------------------------------------|
Labon Pe Likhi Hai Meri Dil Ki Khwahis

E|------------------------------------|
B|------------------------------------|
G|----4-6-4-6-4-----------------------|
D|--7-----------7-4-7-7---------------|
A|------------------------------------|
E|------------------------------------|
Lafzo Mein Kaise Mein Bataun

{Same as previous line}
Ek Tujhko Mein Pane Ki Khatir
Sabse Juda Ho Jaun

E|-------------------------------------|
B|----------------5-7-5-5-5------------|
G|--7--7-7-7--7-7----------------------|
D|-------------------------------------|
A|-------------------------------------|
E|-------------------------------------|
Kal Tak Maine Jo Bhi Khwab The Dekhe

E|-------------------------------------|
B|---------5-7-5-5---------------------|
G|--7--7-7-----------------------------|
D|-------------------------------------|
A|-------------------------------------|
E|-------------------------------------|
Sach Mein Wo Dikhne Lage

E|--4-4-4/5---------------------------|
B|----------5-5/7---------------------|
G|---------------7-7/9--6-6-5-6-7-4---|
D|------------------------------------|
A|------------------------------------|
E|------------------------------------|
Ishq Jo Zara Sa Tha Wo Badh Gaya Re

E|------------------------------------|
B|------------------------------------|
G|--6-6-4-4----6h7-4--4-6-4-4---------|
D|----------------------------7-7-7---|
A|------------------------------------|
E|------------------------------------|
Tera Fitoor Jabse Chad Gaya Re
Tera Fitoor Jabse Chad Gaya Re




Stanza

E|------------------------------------|
B|------------------------------------|
G|----4---6-4-6---4---4---------------|
D|--6---7-------7---6---7-------------|
A|------------------------------------|
E|------------------------------------|
Sanson Ke Kinare Bade Tanha The

E|------------------------------------|
B|------------------------------------|
G|--6-4-6---4----4-4------------------|
D|--------7---6-----------------------|
A|------------------------------------|
E|------------------------------------|
Tu Aake Inhe Chu Le Bas

E|------------------------------------|
B|------------------------------------|
G|--6-4-6---4----4--------------------|
D|--------7---6----5------------------|
A|------------------------------------|
E|------------------------------------|
Yehi To Mere Arman the

E|------------------------------------|
B|------------------------------------|
G|----4-6-4-6-4---------4-4-----------|
D|--6-----------7-6-4-7---------------|
A|------------------------------------|
E|------------------------------------|
Saari Duniya Se Mujhe Kya Lena Hai

E|------------------------------------|
B|------------------------------------|
G|----4-6-4-6-4-----------------------|
D|--7-----------7-4-7-7---------------|
A|------------------------------------|
E|------------------------------------|
Bas Tujhko Hi Pehchan

{Same as Previous line}
Mujhkona Meri Ab Khabar Ho Koi
Tujhko Hi Khudi Se Main Janu

E|-------------------------------------|
B|----------------5-7-5-5-5------------|
G|--7--7-7-7--7-7----------------------|
D|-------------------------------------|
A|-------------------------------------|
E|-------------------------------------|
Raatein Nahin Katti Baechainisi Hoke

E|-------------------------------------|
B|---------5-7-5-5---------------------|
G|--7--7-7-----------------------------|
D|-------------------------------------|
A|-------------------------------------|
E|-------------------------------------|
Din Bhi Gujar Ne Lage

E|--4-4-4/5---------------------------|
B|----------5-5/7---------------------|
G|---------------7-7/9--6-6-5-6-7-4---|
D|------------------------------------|
A|------------------------------------|
E|------------------------------------|
Ishq Jo Zara Sa Tha Wo Badh Gaya Re

E|------------------------------------|
B|------------------------------------|
G|--6-6-4-4----6h7-4--4-6-4-4---------|
D|----------------------------7-7-7---|
A|------------------------------------|
E|------------------------------------|
Tera Fitoor Jabse Chad Gaya Re
Tera Fitoor Jabse Chad Gaya Re


You May Like To Play
Tera Fitoor Guitar Chords

 


Loading...

Leave a Reply

Your email address will not be published. Required fields are marked *