Guitar Tabs

NAINO KI TO BAAT NAINA JAANE HAI || GUITAR TAB || GUITAR SOLO LESSON

Naino Ki Toh Baat Guitar Chords
Naino Ki To Baat Naina Jaane Hai Guitar Tab

Song: NAINO KI TO BAAT (TU MERA HAI SANAM)
Singer : ALTAF SAYYED
Music : CHANDRA SURYA
Lyrics : AKHTAR NAFE
Music Labels: Affection Music Records

Presenting Naino Ki To Baat Naina Jaane Hai Guitar Tab


NAINO KI TO BAAT NAINA JAANE HAI is a most popular song in YouTube which is also searched as HUM DEEWANE HAI AAPKE  (Mera Sanam ) album song is composed by Chandra Surya and sang by Altaf Sayyed.

Scale : Bbm/A#

 

E|------------------------|
B|------------------------|
G|--6-5-5-----------------|
D|--------8-8-----8-------|
A|-------------8-9-9-8-6--|
E|------------------------|
Naino ki to baat naina jaane hai

E|——————————|
B|——————-7-6——–|
G|———-5–5-5-6—–65—-|
D|——6-6———————|
A|–6-6————————-|
E|——————————|
Sapno ke raaj to Raina jaane hai

Naino ki to baat Naina jaane hai
Sapno ke raaj to Raina jaane hai

E|----------------------------------|
B|-----------------------7-7-6------|
G|--6-6-6-8-8/10-10-10-8-------8-8--|
D|----------------------------------|
A|----------------------------------|
E|----------------------------------|
Dil ki ye baatein Dhadkan jaane hai
E|-----------------------------|
B|--------------9-9-7-7-6-6-6--|
G|-------5-5/8-8---------------|
D|--6-6-6----------------------|
A|-----------------------------|
E|-----------------------------|
Jispe gujre wo tan jaane hai
E|------------------------|
B|--6---------------------|
G|------5-6-6--5-5--------|
D|----8-------8-8--8-8-6--|
A|------------------------|
E|------------------------|
Hum deewane Ho gaye hai apke
E|---------------------------|
B|---------------------------|
G|---6-6-5-5-----6-5h6-------|
D|-----------8-6-------8-8---|
A|--8------------------------|
E|---------------------------|
Hum to bas itna Jane hai.
E|--------------------------|
B|--------------------------|
G|---------6-5----------6-5-|
D|--8-6-8-8-----8-6-8-8-----|
A|--------------------------|
E|--------------------------|
Tu mera hai sanam Tu hi mera humdum
E|----------------------------|
B|----------------------------|
G|------------6-5-------------|
D|--8-6-6/8-8-----8-6---6-----|
A|--------------------9--9-8--|
E|----------------------------|
Tere sang jeena Ab saato janam

Tu mera hai sanam Tu hi mera humdum
Tere sang jeena Ab saato janam

 

Stanza1
E|------------------------|
B|------------------------|
G|--6-5-5--------8-5------|
D|-------8-8--8-8----8-6--|
A|------------------------|
E|------------------------|
   Nazrein ye  a.apki
E|-----------------------|
B|-----------------------|
G|-----------------------|
D|-------6h8------7-7/8--|
A|--9-9-9----9-8-8-------|
E|-----------------------|
Karne lagi hosyariyan
Kahi Kar de na ye
Mere liye duswariyaan
E|--------------------------|
B|---------------------6/7--|
G|--6-6-6/8-8/10-10-8-8-----|
D|--------------------------|
A|--------------------------|
E|--------------------------|
     Nazrein ye apki
E|-------------------------|
B|-------------------------|
G|--5-5-6-6/8-8-6-8-6-6-6--|
D|-------------------------|
A|-------------------------|
E|-------------------------|
 Karne lagi hosyariyan
E|--------------------------------|
B|--------------------------------|
G|--6-6-6-8-8/10-10-10-8-8-10/11--|
D|--------------------------------|
A|--------------------------------|
E|--------------------------------|
       Kahi Kar de na ye
E|-------------------------|
B|-------------------------|
G|--5-5-6-6/8-8-6-8-6-6-6--|
D|-------------------------|
A|-------------------------|
E|-------------------------|
    Mere liye duswariyaan

{Same as Mukhda}
Husn ki to baat Husn hi jaane hai
Roop ki raaj to Roop hi jaane hai
Sahi galat to darpan jaane hai
Jispe gujre wo tan jane hai

Hum deewane
Ho gaye hai apke
Hum to bas itna Jane hai.

Tu mera hai sanam
Tu hi mera humdum
Tere sang jeena
Ab saato janam

Tu mera hai sanam
Tu hi mera humdum
Tere sang jeena
Ab saato janam

 

Stanza 2

Sukhe patton ki tarah
Thi meri ye zindagi
Osh ke bundon ke jaise
Jabse mujhpe tu giri

Sukhe patton ki tarah
Thi meri ye zindagi
Osh ke bundon ke jaise
Jabse mujhpe tu giri

Rooh ki baat to
saans hi Jane hai
Honthon ki khwahis
pyaas hi jaane hai

Kyun jogi ho
jogan jane hai
Jispe gujre wo
tan ane hai

Hum deewane
Ho gaye hai apke
Hum to bas itna Jane hai.

Tu mera hai sanam
Tu hi mera humdum
Tere sang jeena
Ab saato janam

Tu mera hai sanam
Tu hi mera humdum
Tere sang jeena

Ab saato janamYou May Like
Naino Ki To Baat Guitar Chords 

 

 


Loading...

Leave a Reply

Your email address will not be published. Required fields are marked *