Guitar TabsSongs

HUMNAVA MERE || JUBIN NAUTIYAL || GUITAR TABS

Humnava Mere Guitar Tabs

Humnava Mere Guitar Tabs

Song: Humnava Mere
Singer: Jubin Nautiyal
Music: Rocky-Shiv
Lyrics: Manoj Muntashir
Music Label: T-series
Language: Hindi
Country: India

Presenting  Humnava Mere Guitar Tab/Guitar Solo 
The song is composed by Rocky -Shiv and written by Manoj Muntashir.
The beautiful voice of this song is given by Jubin Nautiyal.
Scale : F minor

E|------------8---------------------| 
B|-----8-9-11----11-9-8-------------| 
G|--10------------------10/12-10-8--| 
D|----------------------------------| 
A|----------------------------------| 
E|----------------------------------|
Kal raaste mein gum mil gaya tha

E|----------------------------------| 
B|--------------8-------------------| 
G|------------8---10-10-------------| 
D|11-11-11-11-----------------------| 
A|----------------------------------| 
E|----------------------------------|
Lag ke gale main ro diya

E|------------8---------------------| 
B|-----8-9-11----11-9-8-------------| 
G|--10------------------10/12-10-8--| 
D|----------------------------------| 
A|----------------------------------| 
E|----------------------------------|
Jo sirf mera tha sirf mera

E|----------------------------------| 
B|--------------8-------------------| 
G|------------8---10-10-------------| 
D|11-11-11-11-----------------------| 
A|----------------------------------| 
E|----------------------------------|
Maine use kyun kho diya

E|--8-11-11/13-11-8----8------------| 
B|------------------11--------------| 
G|----------------------------------| 
D|----------------------------------| 
A|----------------------------------| 
E|----------------------------------|
Ha wo ankhein jinhe main

E|----------------------------------| 
B|11-9-11-11/13-11-9-8--------------| 
G|----------------------------------| 
D|----------------------------------| 
A|----------------------------------| 
E|----------------------------------|
chumta tha bewajah
Pyaar mere liye kyun unme  baki na raha
Ha a

E|------------------------------------- 
B|----------------8-----------8-9/11-8- 
G|--10--8-10-8-10---10--10-10---------- 
D|------------------------------------- 
A|------------------------------------- 
E|-------------------------------------
 Humnava mere  tu hai to meri

E|----------------------------------| 
B|---8----8-9-----------------------| 
G|10---10-----10--------------------| 
D|----------------------------------| 
A|----------------------------------| 
E|----------------------------------|
saansein chale

E|---------------8----------------------- 
B|--------8-9/10---11-98--8-8/10-8------ 
G|--10-10---------------------------10-8- 
D|--------------------------------------- 
A|--------------------------------------- 
E|---------------------------------------
  Bata de kaise main jiunga

E|----------------------------------|
B|----------------------------------| 
G|--10-10-8-10/12-10----------------| 
D|----------------------------------| 
A|----------------------------------| 
E|----------------------------------|
 Tere bina
Humnava mere tu hai to meri saansein chale
Bata de kaise main jiunga tere bina



Stanza
E|--8-8-8-------------------------------| 
B|--------11/13-9/11-11--11-11-13-11-9--| 
G|--------------------------------------| 
D|--------------------------------------| 
A|--------------------------------------| 
E|--------------------------------------|
Har waqt dil ko jo sataye

E|----------------------------------| 
B|--9-9-9-9--11-9-8-----------------| 
G|----------------------------------| 
D|----------------------------------| 
A|----------------------------------| 
E|----------------------------------|
Aisi kami hai tu
Main bhi na janu ke ye itna
Kyun lazmi hai tu

E|--8-11-11/13-11-8----8------------| 
B|------------------11--------------| 
G|----------------------------------| 
D|----------------------------------| 
A|----------------------------------| 
E|----------------------------------|
Nindein jake na lauti

E|----------------------------------| 
B|11-9-11-11/13-11-9-8--------------| 
G|----------------------------------| 
D|----------------------------------| 
A|----------------------------------| 
E|----------------------------------|
itni ratein dhal gayi
Itne taare gine ke ungliyan bhi jal gayi

E|----------------------------------| 
B|--11--9-8----8--------------------| 
G|----------10----------------------| 
D|----------------------------------| 
A|----------------------------------| 
E|----------------------------------|
Ho o o o
Humnava mere tu hai to meri saansein chale
Bata de kaise main jiunga tere bina
Ho o o
Humnava mere tu hai to meri saansein chale
Bata de kaise main jiunga tere bina

Stanza2
{same as previous Stanza}
Tu akhiri aansu ho yaara
Hai akhiri tu gum
Dil ab kahan hai Jo dobara
De de kisi ko hum
Apni shaamon mein hissa phir kisi ko na diya
Ishq tere bina hi maine tujh se hi kiya
Ho o o

Humnava mere tu hai to meri saansein chale
Bata de kaise main jiunga tere bina
Ho o o
Faasle na de ke main hun aasre tere
Bata de kaise main jiunga tere bina

E|--8----8---8----8-11-11/13-11-8--| 
B|----11--11---11------------------| 
G|---------------------------------| 
D|---------------------------------| 
A|---------------------------------| 
E|---------------------------------|
Aazma raha mujhe kyun aa bhi jaa

E|------8------8/11-8----------------------| 
B|11-11---11-9--------11-8-8-11-8-10-8-10--| 
G|-----------------------------------------| 
D|-----------------------------------------| 
A|-----------------------------------------| 
E|-----------------------------------------|
kahin se Ab tu Kaise main jiunga tere bina
Seenein mein jo dhadkane hai tere naam pe chale hai
Kaise main jiunga tere bina

Humnava mere tu hai to meri saansein chale
Bata de kaise main jiunga tere bina

You may Like To play
Humnava Mere Guitar Chords

 


Loading...

Leave a Reply

Your email address will not be published. Required fields are marked *