Guitar Tabs

DHADAK TITLE SONG || GUITAR TAB || GUITAR SOLO LESSON

Dhadak Guitar Tab  / Guitar Solo Lesson

Dhadak Guitar Tab  / Guitar Solo Lesson

Song: Dhadak
Singer: Ajay Gogavale & Shreya Ghoshal

Music: Ajay-Atul
Lyrics: Amitabh Bhattacharya
Presenting Dhadak Guitar Tab  / Guitar Solo Lesson
This Title Track is composed by Ajay-Atul sang by Ajay Gogavale and written by Amitabh Bhattacharya.Scale: Gm
This song is in G minor scale but in the stanza, some other notes are used.
Because it is a duet song we use the bass note for male voice and high notes for the female voice.


(adsbygoogle = window.adsbygoogle || []).push({});

 

E| -----------------------------------|
B| -----------------------------------|
G| -----------------------------------|
D| --5-8-7-8--8-8-7-5-3---------------|
A| -----------------------------------|
E| -----------------------------------|

Marhamisha Chand Hai Tu

E| -----------------------------------|
B| -----------------------------------|
G| -----------------------------------|
D| ----7-5-7--7-7-8/7-5-5h7-4---------|
A| --8--------------------------------|
E| -----------------------------------|

Dil Jala Sa Main Andhera

E| -----------------------------------|
B| -----------------------------------|
G| -----------------------------------|
D| --5-8-7-8--7-8-7-5----7-5----------|
A| ------------------------8-------8--|
E| -----------------------------------|

Ek Duje Ke Liye Hai

E| -----------------------------------|
B| -----------------------------------|
G| -----------------------------------|
D| ----7-5-7--7-7-8/7-5---------------|
A| --8--------------------------------|
E| -----------------------------------|

Nind Meri Khwab Tera

 
E| -----------------------------------|
B| -----------------------------------|
G| -----8-8_7-7-7-5-------------------|
D| --5------------------7-5-3---------|
A| -----------------------------------|
E| -----------------------------------|

Tu Ghata Hai Phuhar Ki

E| -----------------------------------|
B| -----------------------------------|
G| ----7-7-5-5-7----------------------|
D| -----------------8-7---------------|
A| --8-------------------8------------|
E| -----------------------------------|

Main Ghadi Intezar Ki

E| -----------------------------------|
B| -----------------------------------|
G| ----8-8-7-7-5-7--5-5-5-5-4-7-------|
D| --8--------------------------------|
A| -----------------------------------|
Apna Milna Likha Isi Baras Hai Na
E| -----------------------------------|
B| -----------------------------------|
G| ----------5----5--------5-7/8-7----|
D| --5-7-8----8----8-8-8--------------|
A| -----------------------------------|
E| -----------------------------------|

Jo Meri Manzilon Ko Jati Hai

E| -----------------------------------|
B| -----------------------------------|
G| --5-7-8--7-5-----------------------|
D| ------------- 8-7-7-7/8-7-5--5h7-4-|
A| -----------------------------------|
E| -----------------------------------|

Tere Naam Ki Koi Sadak Hai Na

E| -----------------------------------|
B| -----------------------------------|
G| ----------5----5--------5-7/8-7----|
D| --5-7-8----8----8-8-8--------------|
A| -----------------------------------|
E| -----------------------------------|

Jo Mere Dil Ko Dil Banati Hai

E| -----------------------------------|
B| -----------------------------------|
G| --5-7-8--7-5-----------------------|
D| ----------------8-7-7-7/8-7-5------|
A| -----------------------------------|
E| -----------------------------------|
Tere Naam Ki Koi Dhadak Hai Na

Stanza

E| –10–10-8-7-5_8-7–10-8-7-5_8-7-|
B| ———————-8—–8—-|
G| ————————————————–|
D| ————————————————–|
A| ————————————————–|
E| ————————————————–|

 

Koi Bandhne Joda Odh Ke
{in above symbol “/”= slide ahead, 
“”=Back slide ,”_”= Tie }

E| —5-7-8-8–5-8-5/8-8-6————-|
B| -8—————————————-|
G| ——————————————|
D| ——————————————|
A| ——————————————|
E| ——————————————|
Babul Ki Gali Aun Chod Ke
Tere Hi  Liye Laungi Piya

Sola Saal Ke Sawan Jod Ke { same as Koi Bandhne Joda Odh Ke}

E| -5-6-5—5–6————————–|
B| ———8——8————————|
G| ——————————————|
D| ——————————————|
A| ——————————————|
E| ——————————————|x2

Pyaar Se Thamna Dor Barik Hai

E| -5-6-5—5–6-6/8———————|
B| ———8——————————-|
G| ——————————————|
D| ——————————————|
A| ——————————————|
E| ——————————————|

Saat Janmo Ki Ye
E| –8-10-11-8-10-10-10—————|
B| —————————–11-10-8—|
G| ——————————————|
D| ——————————————|
A| ——————————————|
E| ——————————————|
Pehli Taarikh Hai ae e
{now use as Tu Ghata Hai Phuhar Ki….}
Dor Ka Ek Main Sira Aur Tera Hai Dusra
Jud Sake Bich Mein Kayee Tadap Hai Na
Jo Meri Manzilon Ki Jati Hai
Tere Naam Ki Koi Sadak Hai Na
Jo Mere Dil Ki Dil Banati Hai
Tere Naam Ki Koi Dhadak Hai NaYou may Like
Dhadak Title Song  Guitar Chords
Pehli Baar /Dhadak Guitar Chords
(adsbygoogle = window.adsbygoogle || []).push({});

 


Loading...

Leave a Reply

Your email address will not be published. Required fields are marked *