Guitar Tabs

BAARISH || HALF GIRLFRIEND || ASH KING || GUITAR TAB || GUITAR SOLO LESSON

Baarish Ash King Guitar Chords

Baarish Ash King Guitar Tabs

Song: Baarish
Film: Half Girlfriend
Singers: Ash King, Shashaa
Music: Tanishk Bagchi
Lyrics: Arafat Mehmood & Tanishk Bagchi
Cast: Arjun Kapoor, Shraddha Kapoor
Year: 2017
Language: Hindi
Country: India
Label: Zee Music Company

Presenting Baarish Guitar Solo Lesson / Guitar Tab.
Baarish is the most beautiful romantic song from the film Half Girlfriend. The Song is sang by Ash King and Shashaa and composed by Tanishk Bagchi.

Scale: C Major
To Play This Song Easily Must Know
How to Play C Major Scale


E|--3-----------------------------------| 
B|----6-5-3-3--3/5--3-1-----------------| 
G|--------------------------------------| 
D|--------------------------------------| 
A|--------------------------------------| 
E|--------------------------------------|
 Chehre Mein Tere
E|--3-----------------------------------| 
B|----6-5-3-3--3/5--3-1-1---------------| 
G|--------------------------------------| 
D|--------------------------------------| 
A|--------------------------------------| 
E|--------------------------------------|
Khud Ko Mein Dhundun
E|--------------------------------------| 
B|--5/3-3-3--3-5------------------------| 
G|--------------5-4---------------------| 
D|--------------------------------------| 
A|--------------------------------------| 
E|--------------------------------------|
Ankhon Ke Darmiyan

E|--------------------------------------| 
B|--5/3-3-3--3-5------------------------| 
G|--------------5-4---------------------| 
D|--------------------------------------| 
A|--------------------------------------| 
E|--------------------------------------|
Tu Ab Hai Is Tarah

E|--------------------------------------| 
B|--5/3-3-3--3-5------------------------| 
G|--------------5-4-4-4-5-4-2/4_2-------| 
D|--------------------------------------| 
A|--------------------------------------| 
E|--------------------------------------|
Khwabon Ko Bhi Jagah Na Mile e

E|--------------------------------------| 
B|------3-5----------3-5----------------| 
G|--5-5-----4-5--5-5-----4-5------------| 
D|--------------------------------------| 
A|--------------------------------------| 
E|--------------------------------------|
   Ye Mausam Ki Baarish Ye Baarish Ka Pani

E|--------------------------------------| 
B|---------3------------3---------------| 
G|--5-4-4-5--4-4--4-4-5---4-5-----------| 
D|--------------------------------------| 
A|--------------------------------------| 
E|--------------------------------------|
Ye Pani ki Boonde Tujhe Hi To dhunde

E|--------------------------------------| 
B|------3-5----------3-5----------------| 
G|--5-5-----4-5--5-5-----4-5------------| 
D|--------------------------------------| 
A|--------------------------------------| 
E|--------------------------------------|
Ye Milne Ki Khwahish Ye Khwahish Purani

E|----------------------3---------------| 
B|---------3--------------6-5--3-1------| 
G|--5-4-4-5--4-4--4-4-5-----------------| 
D|--------------------------------------| 
A|--------------------------------------| 
E|--------------------------------------|
Ho Puri Tujhise Meri ye Kahani..


Stanza1
E|--------------------------------------| 
B|-----3------------------3-------------| 
G|--5-5--5-4-2-4_2_0--5-5--5-4-2-4_2_0--| 
D|--------------------------------------| 
A|--------------------------------------| 
E|--------------------------------------|
Kabhi Tujh Mein Utrun Sanson Se Guzroon

E|--------------------------------------| 
B|--------------------------------------| 
G|--5-4--2----5--4--2-------------------| 
D|-----5----------5---------------------| 
A|--------------------------------------| 
E|--------------------------------------|
To Aye Dil Ko Rahat

E|--------------------------------------| 
B|-----3------------------3-------------| 
G|--5-5--5-4-2-4_2_0--5-5--5-4-2-4_2_0--| 
D|--------------------------------------| 
A|--------------------------------------| 
E|--------------------------------------|
Main Hun Be Thikana Bana Mujhko Pana

E|--------------------------------------| 
B|--------------------------------------| 
G|--5-4--2----5--4--2-------------------| 
D|-----5----------5---------------------| 
A|--------------------------------------| 
E|--------------------------------------|
Hai Tujh Mein De Izazat

E|--------------------------------------| 
B|--5/3-3-3--3-5------------------------| 
G|--------------5-4---------------------| 
D|--------------------------------------| 
A|--------------------------------------| 
E|--------------------------------------|
Na Koi Darmiyan

E|--------------------------------------| 
B|--5/3-3-3--3-5------------------------| 
G|--------------5-4---------------------| 
D|--------------------------------------| 
A|--------------------------------------| 
E|--------------------------------------|
Hum Dono Hai Yahan

E|--------------------------------------| 
B|--5/3-3-3--3-5------------------------| 
G|--------------5-4-4-4-5-4-2/4_2-------| 
D|--------------------------------------| 
A|--------------------------------------| 
E|--------------------------------------|
Phir Kyun Hai Tu Bata Fasle e  e

E|--------------------------------------| 
B|------3-5----------3-5----------------| 
G|--5-5-----4-5--5-5-----4-5------------| 
D|--------------------------------------| 
A|--------------------------------------| 
E|--------------------------------------|
   Ye Mausam Ki Baarish Ye Baarish Ka Pani

E|--------------------------------------| 
B|---------3------------3---------------| 
G|--5-4-4-5--4-4--4-4-5---4-5-----------| 
D|--------------------------------------| 
A|--------------------------------------| 
E|--------------------------------------|
Ye Pani ki Boonde Tujhe Hi To dhunde

E|--------------------------------------| 
B|------3-5----------3-5----------------| 
G|--5-5-----4-5--5-5-----4-5------------| 
D|--------------------------------------| 
A|--------------------------------------| 
E|--------------------------------------|
Ye Milne Ki Khwahish Ye Khwahish Purani

E|----------------------3---------------| 
B|---------3--------------6-5--3-1------| 
G|--5-4-4-5--4-4--4-4-5-----------------| 
D|--------------------------------------| 
A|--------------------------------------| 
E|--------------------------------------|
Ho Puri Tujhise Meri ye Kahani..


(adsbygoogle = window.adsbygoogle || []).push({});
Stanza2
{Same as 1st Stanza}
Hawaon Se Tera Pata Puchta Hun
Ab to Aja Tu Kahin Se
Parindon Ki Tarah Ye dil Hai Safar Mein
Tu Mila De Zindagi se
Bas Itni Itteza Tu Aake Ik Dafa
Jo Dil Ne Na Kaha Janle ee

Ye Mausam Ki Baarish Ye Baarish Ka Pani
Ye Pani ki Boonde Tujhe Hi To dhunde
Ye Milne Ki Khwahish Ye Khwahish Purani
Ho Puri Tujhise Meri ye Kahani..






Loading...

Leave a Reply

Your email address will not be published. Required fields are marked *