Guitar Tabs

AAJ EI DINTAKE GUITAR TAB || GUITAR SOLO LESSON

Aaj Ei Din Take Guitar Chords

Aaj Ei Dintake Guitar Tabs

Song: Aaj Ei Dintake
Film : Antarale
Singer : Kishore kumar
Music  :Bapi lahiri
Language: Bengali
Country: India
Year: 1985

Presenting Aaj Ei Dintake Guitar Solo Lesson.
Sale: Dm,

You May Like To Play
Aaj Ei Dintake Easy Guitar Chords

Intro :
E|-------------8------------------------
B|----10---8-8------8-----8-10--10---8--
G|--7---10--------9--9-10------7--10----
D|--------------------------------------
A|--------------------------------------
E|--------------------------------------

E|-----8-8-10-12-10-8----------------8-
B|10-11--------------11-10-8-10-9-10---
G|-------------------------------------
D|-------------------------------------
A|-------------------------------------
E|-------------------------------------

E|----------------------------------|
B|----------------------------------|
G|10--9-7----7-9--10-10-9-7------7-9|
D|--------10---------------10-10----|
A|----------------------------------|
E|----------------------------------|

E|-----------------------------------
B|10-10-10-11-10---------------------
G|-----------------------------------
D|-----------------------------------
A|-----------------------------------
E|-----------------------------------
Aaj ei din take

E|--------------------------------------|
B|10-10-10-10-8----8/10-8---------------|
G|--------------10----------------------|
D|--------------------------------------|
A|--------------------------------------|
E|--------------------------------------|
    Moner khatai likhe rakho

E|----------------------------8---------|
B|--8-8-8--8-10-8-8-8-8-8-8-8---11-10---|
G|--------------------------------------|
D|--------------------------------------|
A|--------------------------------------|
E|--------------------------------------|
   Amai porbe mone Kache dure jekhanei thako

Aaj ei din take
Moner khatai likhe rakho
Amai porbe mone Kache dure
jekhanei thako

E|--10--12-12/13--12-10-8/10-8----------|
B|--------------------------------------|
G|--------------------------------------|
D|--------------------------------------|
A|--------------------------------------|
E|--------------------------------------|
Ho ho ho aha ha ha

E|--------10----------------------------|
B|10-8-10-------------------------------|
G|--------------------------------------|
D|--------------------------------------|
A|--------------------------------------|
E|--------------------------------------|
    Hm hu hm hu

Stanza 1
E|--9-9/10-10-10-12-10------------------|
B|--------------------------------------|
G|--------------------------------------|
D|--------------------------------------|
A|--------------------------------------|
E|--------------------------------------|
Hawar golpo aar

E|--9-9/10-10-10---------8--------------|
B|---------------10-8-10----------------|
G|--------------------------------------|
D|--------------------------------------|
A|--------------------------------------|
E|--------------------------------------|
Pakhider gaan sune sune

E|--8-10/12-10-8-8-8--------------------|
B|--------------------------------------|
G|--------------------------------------|
D|--------------------------------------|
A|--------------------------------------|
E|--------------------------------------|
Aaj ei falgune

E|--------------10-9-9-10-10-10---------|
B|--11-11-11-11-------------------------|
G|--------------------------------------|
D|--------------------------------------|
A|--------------------------------------|
E|--------------------------------------|
Duti chokhe sapnon sidhu ankon

Hawar golpo aar
Pakhider gaan sune sune
Aaj ei falgune
Duti chokhe sapnon sidhu ankon

E|--------------------------------------|
B|--10-8----8---------------------------|
G|-------10-----------------------------|
D|--------------------------------------|
A|--------------------------------------|
E|--------------------------------------|
     O o o

Aaj ei din take
Moner khatai likhe rakho
Amai porbe mone Kache dure
Jekhanei thako


stanza 2

E|--------------------------------------|
B|----10--10-10-10-10-10-8----8/10-8----|
G|7-7----------------------10-----------|
D|--------------------------------------|
A|--------------------------------------|
E|--------------------------------------|
eso aaj bose roye
thaki pasa pasi

E|--------------------------------------|
B|---8-8-8-8----------------------------|
G|-----------10-9-10--10----------------|
D|10------------------------------------|
A|--------------------------------------|
E|--------------------------------------|
Aaj sudhu bhalobasa basi

E|--------------------------------------|
B|--------------------------------------|
G|--10-9-76--6-9-9-9h10-7---------------|
D|--------------------------------------|
A|--------------------------------------|
E|--------------------------------------|
Sudhu gaan ar hasa hasi

{Same as 1st Stanza}
Ronger borsa oi
Nemeche je dekho phule phule
Duti Haath dhore
amake aaro kache dako

Aaj ei din take
Moner khatai likhe rakho
Amai porbe mone Kache dure
jekhanei thako

Aaj ei din take
Moner khatai likhe rakho
Amai porbe mone Kache dure
jekhanei thako

Ho ho ho aha ha ha
Hm hu hm hu

You May Like To Play
Aaj Ei Dintake Easy Guitar Chords


Loading...

Leave a Reply

Your email address will not be published. Required fields are marked *