Guitar TabsHindi

AYE MERE HUMSAFAR GUITAR TABS || Qayamat Se Qayamat Tak

Aye Mere Humsafar Guitar Chords

Aye Mere Humsafar Guitar Tabs

 

FILM: QAYAMAT SE QAYAMAT TAK

Singer: Udit Narayan & Alka Yagnik
Music: Anand Milind
Lyrics: Majrooh Sultanpuri
Music Label: T-Series
After so many requests, Presenting “Aye Mere Humsafar” Guitar Tab/Notes.
Aye Mere Humsafar is a very beautiful evergreen romantic song by Udit Narayan and Alka Yagnik from Amir Khan and Juhi Chawla’s Debut film Qayamat Se Qayamat Tak.Scale: G minor
This song is on G minor because it is a duet song, we will play this song in different positions to match the vocal texture.Guitar Chords Aye Mere Humsafar 

(Male)

E--------------------------|
B--------------------------|
G--3--2h3----3-3-2h3-------|
D---------5----------5-----|
A--------------------------|
E--------------------------|
Aye Mere Humsafar

E--------------------------|
B--------3-----------------|
G--3-3-3---5--3--2---2-----|
D------------------5---5-3-|
A--------------------------|
E--------------------------|
Ek Jara intajaar

E---------------------------|
B---------------------------|
G-------2------------2------|
D--3--3---5\3--3-3-3---5\3--|
A---------------------------|
E---------------------------|
Sun sadayen de rahi hai

E---------------------------|
B---------------------------|
G----3--2-------------------|
D----------5-5--------------|
A--5------------------------|
E---------------------------|
Manjil pyaar ki

Aye mere humsafar
Ek jara intajaar
Sun sadayen de rahi hai
Manjil pyaar ki

Stanza 1

(Male...)
E----------------------------|
B---------3------------------|
G------------5-3-2-3-5-------|
D--5--5-5---------------3----|
A----------------------------|
E----------------------------|
Ab hai judaai ka mausam

E----------------------------|
B----------------------------|
G---------5-3-2---2-3--------|
D--3--3-3-------5------------|
A----------------------------|
E----------------------------|
Do pal ka mehmaan

E----------------------------|
B---------3------------------|
G-----------5-3-2-3-5--------|
D--5--5-5--------------3-----|
A----------------------------|
E----------------------------|
Kaise naa jayega andhera

E----------------------------|
B----------------------------|
G---------5-3-2----2-3-------|
D--3--3-3--------5-----------|
A----------------------------|
E----------------------------|
Kyun naa thamega toofaan

(Female..)
E-------10-8-6-5-6-8---------|
B--8--8---------------6------|
G----------------------------|
D----------------------------|
A----------------------------|
E----------------------------|
Ab hai judaai ka mausam

E-------8-6-5---5-6----------|
B--6--6-------8--------------|
G----------------------------|
D----------------------------|
A----------------------------|
E----------------------------|
Do pal ka mehmaan

E-------10-8-6-5-6-8---------|
B--8--8---------------6------|
G----------------------------|
D----------------------------|
A----------------------------|
E----------------------------|
Kaise naa jayega andhera

E-------8-6-5---5-5/6--------|
B--6--6-------8--------------|
G----------------------------|
D----------------------------|
A----------------------------|
E----------------------------|
Kyun naa thamega toofaan

E--7--7--7-10-8-8--5---5-----|
B--------------------8---8-6-|
G----------------------------|
D----------------------------|
A----------------------------|
E----------------------------|
Kaise naa milegi

E----6--5--------------------|
B----------------------------|
G--7--------8-8--------------|
D----------------------------|
A----------------------------|
E----------------------------|
Manjil pyaar ki

E--6--5h6----6-6-5-----------|
B---------8---------8--------|
G----------------------------|
D----------------------------|
A----------------------------|
E----------------------------|
Aye mere humsafar

E--6-6-6-10--8--6--5---5-----|
B--------------------8---8-6-|
G----------------------------|
D----------------------------|
A----------------------------|
E----------------------------|
Ek jara intajaar

E-------5------------5-------|
B--6--6---8\6--6-6-6---8\6---|
G----------------------------|
D----------------------------|
A----------------------------|
E----------------------------|
Sun sadayen de rahi hai

E----6--5--------------------|
B----------------------------|
G--7-------8-8---------------|
D----------------------------|
A----------------------------|
E----------------------------|
Manjil pyaar ki

Stanza 2

(Female)
E-------10-8-6-5-6-8---------|
B--8--8--------------6-------|
G----------------------------|
D----------------------------|
A----------------------------|
E----------------------------|
Pyaar ne jahan pe rakha hai

E-------8-6-5---5-6----------|
B--6--6-------8--------------|
G----------------------------|
D----------------------------|
A----------------------------|
E----------------------------|
Jhum ke kadam ik baar

E-------10-8-6-5-6-8---------|
B--8--8--------------6-------|
G----------------------------|
D----------------------------|
A----------------------------|
E----------------------------|
Wahin se khula hai koi rasta

E-------8-6-5---5-5/6--------|
B--6--6-------8--------------|
G----------------------------|
D----------------------------|
A----------------------------|
E----------------------------|
Wahin se giri hai dewaar

(MALE.)
E----------------------------|
B---------3------------------|
G-----------5-3-2-3-5--------|
D--5--5-5--------------3-----|
A----------------------------|
E----------------------------|
Pyaar ne jahan pe rakha hai

E----------------------------|
B----------------------------|
G-------5-3-2--2-3-----------|
D--3--3-------5--------------|
A----------------------------|
E----------------------------|
Jhum ke kadam ik baar

E----------------------------|
B--------3-------------------|
G-----------5-3-2-3-5--------|
D--5-5-5--------------3------|
A----------------------------|
E----------------------------|
Wahin se khula hai koi rasta

E----------------------------|
B----------------------------|
G-------5-3-2--2-3-----------|
D--3--3-------5--------------|
A----------------------------|
E----------------------------|
Wahin se giri hai dewaar

E----------------------------|
B----------3-----------------|
G--4--4--4---5-5--2---2------|
D-------------------5----5-3-|
A----------------------------|
E----------------------------|
Roke kab ruki hai

E----------------------------|
B----------------------------|
G----3--2--------------------|
D---------5-5----------------|
A--5-------------------------|
E----------------------------|
Manjil pyaar ki

Aye mere humsafar
Ek jara intajaar
Sun sadayen de rahi hai
Manjil pyaar ki

Guitar Chords Aye Mere Humsafar
Aye Mere Humsafar Guitar Intro

 


Loading...

Leave a Reply

Your email address will not be published. Required fields are marked *