Guitar Tabs

ISHQ DE FANNIYAR GUITAR TAB

Ishq de fanniyar Guitar Tabs

Ishq de fanniyar Guitar Tabs

“Ishq de fanniyar”  this song is from the movie Fukrey Returns.this
Song is composed by Shaarib,toshi  this song is in two version male
Version sang by Shaarib,Toshi female version is sang by Jyotica Tangri
Here I am showing it’s tab for guitar, hope that you will enjoy to play this
song if any query, coment in coment box.

Scale Dm

e---------------------------------|
b---------------------------------|
g---8---8-6-8/10--10-8------------|
d---------------------------------|
a---------------------------------|
e---------------------------------|
ishq da fanniyar
e----------------------------------|
b----------------------------------|
g---6/8-8-6--8/10--10-8------------|
d----------------------------------|
a----------------------------------|
e----------------------------------|
lad gaye mere
e----------------------------------|
b----------------------------------|
g--6/8-8-6--8/10-10-8---6----------|
d-------------------------8-8------|
a----------------------------------|
e----------------------------------|
 jaan ke piche pad gaye
e----------------------------------|
b----------------------------------|
g---8---8-6-8/10--10-8-------------|
d----------------------------------|
a----------------------------------|
e----------------------------------|
sidi la aa ke

e----------------------------------|
b----------------------------------|
g---6/8-8-6--8/10--10-8------------|
d----------------------------------|
a----------------------------------|
e----------------------------------|
dekho me  ere

e-----------------------------------|
b-----------------------------------|
g--6/8-8-6--8/10-10-8---6-----------|
d-------------------------8-8-------|
a-----------------------------------|
e-----------------------------------|
dil ki chat pe chad gaye

e-----------------------------------|
b-----------------------------------|
g--10--10-11-108-10--8-6------------|
d-----------------------------------|
a-----------------------------------|
e-----------------------------------|
sau sau awaje

e-----------------------------------|
b-----------------------------------|
g--6-8-8-8-8------------------------|
d-----------------------------------|
a-----------------------------------|
e-----------------------------------|
mare ankhiya

e-----------------------------------|
b-----------------------------------|
g--6-8-8-8-8------------------------|
d-----------------------------------|
a-----------------------------------|
e-----------------------------------|
mare ankhiya

e-----------------------------------|
b--------6-6------------------------|
g--6-8-8----------------------------|
d-----------------------------------|
a-----------------------------------|
e-----------------------------------|
mare ankhi ya

e-----------------------------------|
b--6-6-6--6-------------------------|
g-----------8--6-8-8-8-8------------|
d-----------------------------------|
a-----------------------------------|
e-----------------------------------|
use chat se utare ankhiya

e-----------------------------------|
b-----------------------------------|
g--6-8-8-8-8------------------------|
d-----------------------------------|
a-----------------------------------|
e-----------------------------------|
utare ankhiya

e-----------------------------------|
b--------6-6------------------------|
g--6-8-8----------------------------|
d-----------------------------------|
a-----------------------------------|
e-----------------------------------|
utare ankhiya

e--6-6-6-7-6---6-6-6-6--------------|
b------------9----------------------|
g-----------------------------------|
d-----------------------------------|
a-----------------------------------|
e-----------------------------------|
sau sau awaje  mare ankhiya

e-6-9-9-7-7-6-6---------------------|
b---------------9-9-8-8-7-----------|
g-------------------------8---------|
d-----------------------------------|
a-----------------------------------|
e-----------------------------------|
ik tera naam pukare soni

e-----------------------------------|
b---------6-6-6---------------------|
g---6/8-6--------8-6----------------|
d-----------------------------------|
a-----------------------------------|
e-----------------------------------|
rag de rajhna       aa

e--------------6--------------------|
b--7-7-7--7--9---6-6h7--------------|
g---------------------8-8-8---------|
d-----------------------------------|
a-----------------------------------|
e-----------------------------------|
tere hi jaise e lagte hai sare

e-----------------------------------|
b---------------6-6-----------------|
g--8-6--8-8-6-8-----8--6------------|
d------------------------8-8--------|
a-----------------------------------|
e-----------------------------------|
dar lagta  na ho jaye yari

e-----------------------------------|
b-------------6-6-6-----------------|
g---8-6-6-8-6-------8-6-------------|
d-----------------------------------|
a-----------------------------------|
e-----------------------------------|
soni rang de rajna

e--------------6--------------------|
b--7-7-7--7--9---6-6h7--------------|
g---------------------8-8-8---------|
d-----------------------------------|
a-----------------------------------|
e-----------------------------------|
puch le to chand se ginti utare

e-----------------------------------|
b---------------6-6-----------------|
g--8-6--8-8-6-8-----8--6------------|
d------------------------8-8--------|
a-----------------------------------|
e-----------------------------------|
dar lagta  na ho jaye yari

e-----------------------------------|
b-------------6-6-6-----------------|
g---8-6-6-8-6-------8-6-------------|
d-----------------------------------|
a-----------------------------------|
e-----------------------------------|
soni rang de rajna

e--6-6--6--6--6-7-6-----6-----------|
b-------------------7-7-------------|
g-----------------------------------|
d-----------------------------------|
a-----------------------------------|
e-----------------------------------|
use pakde kaun sapera

e--6-6/9-9-7-7-6-6-----6------------|
b------------------9-9--------------|
g-----------------------------------|
d-----------------------------------|
a-----------------------------------|
e-----------------------------------|
hai fan uske furtile

e-----------------------------------|
b--6------6-6-6-6-6-----------------|
g-----6-6---------------------------|
d-----------------------------------|
a-----------------------------------|
e-----------------------------------|
Woh teekhi jeebh se gaaye

e-----------------------------------|
b--6--9-7-7-6-----------------------|
g-------------8-8-8-----------------|
d-----------------------------------|
a-----------------------------------|
e-----------------------------------|
To lagte raag sureele

For chords
https://www.tgtutorials.com/2017/12/Ishq-de-fanniyar-guitar-chord.html

 


Loading...

Leave a Reply

Your email address will not be published. Required fields are marked *